PrimaNota.ru - самый крупный в мире бесплатный архив песенных текстов, аккордов, табулатур и нот


Stand Alone - Live Fast And Die - таба, видео

Регистрация Запомнить меня
Войти через:  Facebook Google Twitter Vk Yandex Mail.ru

Stand Alone - Live Fast And Die - таба, видео

Печатать
Просмотров: 63
Stand Alone - Live Fast And Die (as played live)
Written By Miguel Gulfin
http://surf.to/standalone

Transcribed by Paul Christian  severed_hand@hotmail.com>

Intro Guitar Part (harmonics)
|------------------------|------------------------|
|---7---12------------12-|---7---12--------------.|
|-5---7----7---12---7----|-5---7----7---12--------| 
|------------7----7------|------------7----7-----.|
|------------------------|------------------------|
|------------------------|------------------------|

Pre-Verse
|-----------------| ----------------|-----------------
|-----------------|-----------------|-----------------
|-----------------|-----------------|-----------------
|-4-----4-----5---|-4-----4-----5---|-4-----4-----5---
|-2-----2-----3---|-2-----2-----3---|-2-----2-----3---
|---0-0---0-0---0-|---0-0---0-0---0-|---0-0---0-0---0-

|-------------------|
|-------------------|
|-------------------|
|-------------------|
|-5-5-5-5-5-5-5-5-2-|
|-3-3-3-2-2-2-3-2-0-|

Verse
|---------|-------------------------------------------------
|---------|-------------------------------------------------
|---------|-------------------------------------------------
|---------|-------------------------------------------------
|-2-2-2-2-|-2-2-2-2-|-2-2-2-2-|-2-2-2-2-|-2-2-2-2-|-2-2-2-2-
|-0-0-0-0-|-0-0-0-0-|-0-0-0-0-|-0-0-0-0-|-0-0-0-0-|-0-0-0-0-

|-------------------|
|-------------------|
|-------------------|
|-------------------|
|-5-5-5-5-5-5-5-5-2-|
|-3-3-3-2-2-2-3-2-0-|

Chorus
|---------|---------|---------|--------|---------|---------|---------
|---------|---------|---------|--------|---------|---------|---------
|---------|---------|---------|--------|---------|---------|---------
|---------|---------|-5-5-5-5-|-5-5-5-5|---------|---------|---------
|-2-2-2-2-|-2-2-2-2-|-3-3-3-3-|-5-5-5-5|-5-5-5-5-|-5-5-5-5-|-5-5-5-5-
|-0-0-0-0-|-0-0-0-0-|---------|--------|-3-3-3-3-|-3-3-3-3-|-2-2-2-2-

|---------|
|---------|
|---------|
|---------|
|-5-5-5-5-|
|-2-2-2-2-|


SOLO

|----12----12-------12h15p12----12h15p12----15p12----15p12------15p12---
|-15b----15b----15b----------15----------15-------12-------12-15------12
|-----------------------------------------------------------------------
|-----------------------------------------------------------------------
|-----------------------------------------------------------------------
|-----------------------------------------------------------------------

-15p12-------|
-------12-15-|
-------------|
-------------|
-------------|
-------------|

|-12h15p12-------------------------------------------------------|       =

|----------15-12h15p12----12-------------------------------------|       =

|----------------------14----14~-14b16b14p12-14b16b14p12-----12~-|
|----------------------------------------------------------------|
|--------------------------------------------------------12~-----|
|----------------------------------------------------------------|

|------------------------------------------------------------------------=
|
|------------------------------------------------------------------------=
|
|-9-9-9-9-11-11-11-11-12-12-12-12-11-11-12-12-14-14-14-14-11-11-12-12-16-=
|
|------------------------------------------------------------------------=
|
|------------------------------------------------------------------------=
|
|------------------------------------------------------------------------=
|
      treble picking  .......................................
|------------------------------------------------------------------------=
|
|12-13-15-13-12-13--17-15-13-15--19-17-15-17-20-19-17-19--20b22b20p19  20~|
|------------------------------------------------------------------------=
|
|------------------------------------------------------------------------=
|
|------------------------------------------------------------------------=
|
|------------------------------------------------------------------------=
|
      treble picking  .......................................

|--------------------------------------------------------
|-20/19-15/12-15-10/8-10-15p12~--20/19-15/12-15-10/8-10~-
|--------------------------------------------------------
|--------------------------------------------------------
|--------------------------------------------------------
|--------------------------------------------------------
   t     p    t   p    t  p       t      p    t  p   t

|----------------------------------------------------|---------|---------=
|
|-20/19-15/12-15-10/8-10-15p12~--20/19-15/12-15-10/8-|-10-15-8-|-10-15-7-=
|
|----------------------------------------------------|---------|---------=
|
|----------------------------------------------------|---------|---------=
|
|----------------------------------------------------|---------|---------=
|
|----------------------------------------------------|---------|---------=
|
   t     p    t   p    t  p       t      p    t  p     t  t  p   t  t  p
                                                          x8        x8
     
Добавлено: 27.07.2013
Другие материалы по этой песне:
  • Аккорды и текст

Страница создана 27.07.2013
http://primanota.ru/stand-alone/live-fast-and-die-chords.htm
Привет, Гость.
Предлагаем пройти революционный курс по гитаре.
Подарок от PrimaNota.Ru, забирай!