PrimaNota.ru - самый крупный в мире бесплатный архив песенных текстов, аккордов, табулатур и нот


Stampeders - Wild Eyes - таба, видео

Регистрация Запомнить меня
Войти через:  Facebook Google Twitter Vk Yandex Mail.ru

Stampeders - Wild Eyes - таба, видео

Печатать
Просмотров: 142
Авторы музыки: Rich Dodson
Авторы текста: Rich Dodson
Stampeders: Wild Eyes

 
Standard tunning
 
Intro. Played 2x
 
E|--0---0-0-00--0-0-0-00--|--0-0-0-0-0-0-0-0-0-0-0--|
B|------------------------|-------------------------|
G|------------------------|-------------------------|
D|--0h2-2-2-22--0h2-2-22--|--0----------------------|
A|------------------------|----3-3-3-3-3-0-3-3-3-3--|
E|------------------------|-------------------------|
 
E|--0-0-0-0-0-0-0-0-0-0-0--|--0---0-0-00-0-0-0--|
B|-------------------------|--------------------|
G|-------------------------|--------------------|
D|-------------------------|--0h2-2-2-22-0-2-2--|
A|--3-0-0-0-0-0---0-0-0-0--|--------------------|
E|--------------3----------|--------------------|
 
Verse
 
E|---------------------------------------------------|
B|------8-----8-----8-----8-----8-----8-----8-----8--|
G|------7-----7-----7-----7-----7-----7-----7-----7--|
D|---------------------------------------------------|
A|--------333---------------------333----------------|
E|--000---------000---000---000---------000---000----|
 

E|-------------------------------|
B|-------------------------------|
G|------2-----------2--3232------|
D|---2--2-----3---2-2------3232--|
A|--0---0--3--3---0-0------------|
E|---------1--1------------------|
 

E|---------------------------|
B|------8-----8-----8-----8--|
G|------7-----7-----7-----7--|
D|---------------------------|
A|--------333----------------|
E|--000---------000---000----|
 

E|--------------|
B|--------------|
G|--------------|
D|--------------|
A|--8-7----7-5--|
E|--6-5----5-3--|
 
|Now play all the above again.|
 
Middle solo section
 
E|--------------------------------------|
B|------8-88-----8-88-----8-88----------|
G|------7-77-----7-77-----7-77----------|
D|--------------------------------------|
A|--------------------------------------|
E|--000------000------000------0000000--|
 
E|-----------------------------------------|
B|--------------------------8-88-----8-88--|
G|--99999--7/999/12\7/9-----7-77-----7-77--|Play this part 2x.
D|-----------------------------------------|
A|--77777--5/777/10\5/7--------------------|
E|----------------------000------000-------|
 
E|-----------------------8-88-----8-88--|
B|-----------------------8-88-----8-88--|
G|--------------5-----------------------|
D|--77777--5/777-5-7--------------------|
A|-------------------000------000-------|
E|--------------------------------------|
 
E|-----------------------------------------|
B|--------------------------8-88-----8-88--|
G|--99999--7/999/12\7/9-----7-77-----7-77--|
D|-----------------------------------------|
A|--77777--5/777/10\5/7--------------------|
E|----------------------000------000-------|
 
E|-------------------------------|
B|-------------------------------|
G|-------------------------------|
D|--4--/7--2--4--/7--2--4--2-----|
A|--2--/5--0--2--/5--0--2--0--5--|
E|----------------------------3--|
 
E|-------------------------------------|
B|--------------------------8---8---8--|
G|--99999--7/999/12\7/9-----7-9-7-9-7--|Play 2x.
D|----------------------------9---9----|
A|--77777--5/777/10\5/7----------------|
E|----------------------000------------|
 
E|-----------------------------------------|
B|--------------------------8-88-----8-88--|
G|--99999--7/999/12\7/9-----7-77-----7-77--|
D|-----------------------------------------|
A|--77777--5/777/10\5/7--------------------|
E|----------------------000------000-------|
 
E|-------------------------------|
B|-------------------------------|
G|-------------------------------|
D|--4--/7--2--4--/7--2--4--2-----|
A|--2--/5--0--2--/5--0--2--0--5--|
E|----------------------------3--|
 
|Now play from the Intro again.|
Добавлено: 06.07.2012
Другие материалы по этой песне:
  • Аккорды и текст

Страница создана 06.07.2012
http://primanota.ru/stampeders/wild-eyes-chords.htm
Привет, Гость.
Предлагаем пройти революционный курс по гитаре.
Подарок от PrimaNota.Ru, забирай!