PrimaNota.ru - самый крупный в мире бесплатный архив песенных текстов, аккордов, табулатур и нот


Staind - Tormented - таба, видео

Регистрация Запомнить меня
Войти через:  Facebook Google Twitter Vk Yandex Mail.ru

Staind - Tormented - таба, видео

Печатать
Просмотров: 152
STAIND - TORMENTED (1996)

This is all in Drop-Db except for Tolerate.

1. Tolerate
2. Come Again
3. Break
4. Painful
5. Nameless
6. Mudshuvel
7. See Thru
8. Question?
9. No One's Kind
10. Self Destruct
11. 4 Walls

1. TOLERATE:

This one's on a baritone guitar in Drop-Bb or something like that, so I don't know it.

2. COME AGAIN:

I have to admit, I got this from the tab book for The Singles, so I will NOT take the 
credit. But I promise I figured out almost everything else.

Bass Intro (D/Db Dorian scale with F#/F)
---|-------------------|-----------------|
---|-------------------|-----------------|
---|-------------------|-----------------|
-0-|-12-0-10-0-9-0-7-0-|-5-0-4-0-3-0-2-0-|

 Main Riff
|-----------|-------------|
|-----------|-------------|
|-----------|-------------|
|-----------|-------------|
|-0-3-6-0-3-|-6-----------|
|-0-3-6-0-3-|-6-0-0-0-0-0-|
                . . . . .

Verse
---|----------|---|-12-|
-5-|-12/13\12-|-5-|-11-|
-3-|-11/12\11-|-3-|-9--|
---|----------|---|----|
---|----------|---|----|
---|----------|---|----|

---|-------|---|-12-|
-5-|-12/13-|-5-|-11-|
-3-|-11/12-|-3-|-9--|
---|-------|---|----|
---|-------|---|----|
---|-------|---|----|

|-----------------|-------------|
|-----------------|-------------|
|-----------------|-------------|
|---------<7>-----|-------------|
|------<7>---<12>-|-0-3-6-3-2-0-|
|-0-7/8-----------|-0-3-6-3-2-0-|
                    . . . . . .

Bridge
|-----------------|
|-----------------|
|-----------------|
|-----------------|
|-7/8-----4\3---3-|
|-7/8-0-0-4\3-0-3-|
      . .     .

|----------------|----------------|
|----------------|----------------|
|----------------|----------------|
|----------------|----------------|
|----------7\6-4-|-(4)\3---3------|
|-7-x-x-x-x---7--|------5-4-4-3-2-|
              .         . . . . .

|-------------------|---------------|
|-------------------|---------------|
|-------------------|---------------|
|-7-x-x-x-x-7\6---5-|---------------|
|-7-x-x-x-x-7\6-0-4-|-4-3-2-3-2-1-0-|
|-7-x-x-x-x-7\6-0-5-|-4-3-2-3-2-1-0-|
                .     . . . . . . .

Chorus (2x)
3rd Bridge riff (7x)

-------------------|-------------|
-------------------|-------------|
-------------------|-------------|
-7-x-x-x-x-7\6---5-|-------------|
-7-x-x-x-x-7\6-0-4-|-4-3-2-3-2-1-|
-7-x-x-x-x-7\6-0-5-|-4-3-2-3-2-1-|
               .     . . . . .

3. BREAK:

Intro
(clean tone, maybe with chorus)
-4-1---|-4-4-4-1---|-4-1---|
-1-----|-1---------|-1-----|
-4-----|-4---------|-4-----|
-------|-----------|-------|
-------|-----------|-------|
-------|-----------|-------|

(dist.)
---------|---------|
---------|---------|
---------|---------|
---------|---------|
---------|---------|
-<7>-<7>-|-<7>-<7>-|

Verse 1
(clean tone, maybe with chorus)
-4-1---|-4-4-4-1---|-4-1---|-4-6-1---|
-1-----|-1---------|-1-----|-1-------|
-4-----|-4---------|-4-----|-4-------|
-------|-----------|-------|---------|
-------|-----------|-------|---------|
-------|-----------|-------|---------|

-4-1---|-4-4-4-1---|-4-1---|
-1-----|-1---------|-1-----|
-4-----|-4---------|-4-----|
-------|-----------|-------|
-------|-----------|-------|
-------|-----------|-------|

(dist.)
---------|---------|
---------|---------|
---------|---------|
---------|---------|
---------|---------|
-<7>-<7>-|-<7>-<7>-|

Now repeat the Verse and play this:
---------|-----------|
---------|-----------|
---------|-----------|
---------|-------7---|
---------|-0-0-0-6---|
-<7>-<7>-|-0-0-0-7---|
           . . .

Verses 2 and 3
---------------------|
---------------------|x3
---------------------|
-3p2-----3p2---------|
-3p2-0-0-3p2-0-0-1-0-|x3
-3p2-0-0-3p2-0-0-1-0-|
     . .     . . . .

---------------------|
---------------------|
---------------------|
-3p2-----3p2-----1---|
-3p2-0-0-3p2-0-0-1---|
-3p2-0-0-3p2-0-0-1---|
     . .     . .

-----------------|-------------------------|
-----------------|-------------------------|x4
-----------------|-------------------------|
-3p2-----3p2-----|-3p2-----3p2-------------|
-3p2-0-0-3p2-0-0-|-3p2-0-0-3p2-0-0-0-0-0-0-|x4
-3p2-0-0-3p2-0-0-|-3p2-0-0-3p2-0-0-0-0-0-0-|
     . .     . .       . .     . . . . . .

Chorus (x4)
--------|-----------|
--------|-----------|
--------|-----------|
-8------|-8--8--3---|
-8------|-8--8--3---|
-8------|-8--8--3---|

---------------------|
---------------------|x2 (last time x4)
---------------------|
-3p2-----3p2---------|
-3p2-0-0-3p2-0-0-1-0-|x2 (last time x4)
-3p2-0-0-3p2-0-0-1-0-|
     . .     . . . .

Solo
                                            ~~~~~~~~~~
----------------|-------------|-----------|-------------|
----------------|-------------|-----------|-------------|
----------------|-------------|-----------|-------------|
----------------|-------------|-----------|-------------|
-8-----7h8p7h8p-|-p7----------|-----------|-------------|
----------------|--------8\7/-|-/12-------|-(12)------\-|

----------------|--------------|------------|
----------------|--------------|------------|
----------------|--------------|------------|
----------------|--------------|------------|
-8-----7h8p7h8/-|-/10-----8p7/-|-/12------/-|
----------------|--------------|------------|

------------------------------------------|
--------------18-15--------------17-18-20-|
-19-16-------------18-17-16-17-19---------|
------18-17-15----------------------------|
------------------------------------------|
------------------------------------------|

                                  ~~~~~~
-17-20-18-17--------------17-|-20b------\-|
------------20-18-17-18-20---|------------|
-----------------------------|------------|
-----------------------------|------------|
-----------------------------|------------|
-----------------------------|------------|

last chord
---------|
---------|
---------|
-1-------|
-1-------|
-1-------|

4. PAINFUL:

This riff is very hard to figure out, like most everything else on this album. So this 
is just how I play it, even though I can tell the riff is like at least half wrong.

Intro                           trem
-------------|-------------|--------|
-------------|-------------|--------|
-------------|-------------|--------|
-------------|-------------|--------|
-0-0-3-6-3-0-|-4-7-4-0-5-8-|-5-0-6/-|
-0-0-3-6-3-0-|-4-7-4-0-5-8-|-5-0-6/-|
   . . . . .   . . . . . .   . . .

                                 trem
--------------|-------------|--------|
--------------|-------------|--------|
--------------|-------------|--------|
--------------|-------------|--------|
-12-0-3-6-3-0-|-4-7-4-0-5-8-|-5-0-6/-|
-12-0-3-6-3-0-|-4-7-4-0-5-8-|-5-0-6/-|
    . . . . .   . . . . . .   . . .

Repeat the second line of the intro 4x

Verse
-----------|-------|-----|-----------|-----------------------|
-----------|-------|-----|-----------|-----------------------|
-----------|-------|-----|-----------|-----------------------|
-0---0---0-|-0-----|-0---|-0---0---0-|-0---------------------|
-0---0---0-|-0-----|-0---|-0---0---0-|-0---0-3-6-3-0-4-7-4-0-|
-0---0---0-|-0-----|-0---|-0---0---0-|-0---0-3-6-3-0-4-7-4-0-|
   .   . .     .       .     .   . .   .   . . . . . . . . .

Chorus
-----------|-----------|
-----------|-----------|
-7\5-------|-----------|
-7\5-3-5-3-|-(3)-------|
-5\3-3-5-3-|-(3)-------|
-----3-5-3-|-(3)-------|

Solo
Sorry, it's way too hard to figure out, even slowed way down.

5. NAMELESS:

Intro
-----------------------------------|
-----------------------------------|x3
-----------------------------------|
-5h6-x-x-x-x-5h6-x-x-x-x-5h6-------|
-5h6-x-x-x-x-5h6-x-x-x-x-5h6-3-3-3-|x3
-5h6-x-x-x-x-5h6-x-x-x-x-5h6-3-3-3-|
                             . . .

-----------------------------------|
-----------------------------------|
-----------------------------------|
-5h6-x-x-x-x-5h6-x-x-x-x-5h6-------|
-5h6-x-x-x-x-5h6-x-x-x-x-5h6-7-8-6-|
-5h6-x-x-x-x-5h6-x-x-x-x-5h6-7-8-6-|
                             . . .

-------------------------------------|
-------------------------------------|
-------------------------------------|
-5h6-x-x-x-x-5h6-x-x-x-x-5h6---------|
-5h6-x-x-x-x-5h6-x-x-x-x-5h6-7-8-7-6-|
-5h6-x-x-x-x-5h6-x-x-x-x-5h6-7-8-7-6-|
                             . . . .

-------------|
-------------|x3
-------------|
-3-----3---6-|
-3-----3---5-|x3
-3-<5>-3-0---|
         .

-------------|
-------------|
-----------8-|
-3-----3---7-|
-3-----3---6-|
-3-<5>-3-0---|
         .

-------------------------------|
-------------------------------|
-------------------------------|
-1-x-x-3h4-x-x-3h4-x-x-3h4-x-x-|
-1-x-x-3h4-x-x-3h4-x-x-3h4-x-x-|
-1-x-x-3h4-x-x-3h4-x-x-3h4-x-x-|

Verse
---------|
---------|
---------|
-3-------|
-3-------|
-3-------|

Pre-Chorus
Repeat second riff

Chorus
-------------|---------|
-------------|---------|x4
-------------|---------|
-1-----3-----|-3-------|
-1-3-3-4-3-3-|-3-------|x4
-1-3-3-3-3-3-|-3-------|
   . .   . .

Bridge
---------|---------|-------------------------------|
---------|---------|-------------------------------|x4
---------|---------|-------------------------------|
-7-------|-8-------|-1-x-x-3h4-x-x-3h4-x-x-3h4-x-x-|
-x-------|-x-------|-1-x-x-3h4-x-x-3h4-x-x-3h4-x-x-|x4
-7-------|-8-------|-1-x-x-3h4-x-x-3h4-x-x-3h4-x-x-|

Last chord
---------|
---------|
---------|
-3-------|
-3-------|
-3-------|

6. MUDSHUVEL:

Bass intro
---|---|---|---|
---|---|---|---|
---|---|---|---|
---|---|---|---|
-0-|-3-|---|---|
---|---|-0-|-0-|

-------------------------|
-------------------------|
-------------------------|
-------------------------|
-----0--0--0--0-0-0-0--0-|
-<5>-0--0--0--0-0-0-0--0-|
     .  .  .  . . . .  .

Verse
-------------------------------------|
-------------------------------------|
-------------------------------------|
-------------------------------------|
-------------------------------------|
-<4>\/-|

Chorus
---------------------|
---------------------|
---------------------|
-7--7--7--7----------|
-------------0-0-0-0-|
-------------0-0-0-0-|
             . . . .

Bridge
---------------------------|
---------------------------|
---------------------------|
-5p4-x-x-4p3-x-x-3p2-2-3-4-|
-5p4-x-x-4p3-x-x-3p2-2-3-4-|
-5p4-x-x-4p3-x-x-3p2-2-3-4-|

---------|
---------|
---------|
-7-------|
-7-------|
-7-------|

-----------|
-----------|
-----------|
-----------|
----<3>----|
-<3>---<3>-|

7. SEE THRU:

Intro
-----------------------------|
-----------------------------|
-----------------------------|
-----------------------------|
-3p2-0-0-2-0-2-0-2-3-2-0-2-0-|
-3p2-0-0-2-0-2-0-2-3-2-0-2-0-|
     . .   .   . . . . . . .

                 PH PH PH
--------------------------|
--------------------------|
-----------------7b-7b-7b-|
--------------------------|
-3p2-0-0-2-0-2-0----------|
-3p2-0-0-2-0-2-0----------|
     . .   .   .

Verse
---------------------------------|
---------------------------------|
---------------------------------|
---------------------------------|
-3-2-0-0-2-2-0-2-----------------|
-3-2-0-0-2-2-0-2-----------------|
 . . . . . . . .

-------------------------------|
-------------------------------|
-------------------------7b-7b-|
-------------------------------|
-3-2-0-0-2-2-0-2---------------|
-3-2-0-0-2-2-0-2---------------|
 . . . . . . . .

Pre-Chorus/Outro
This is just how I play it.
---------------------------------|
---------------------------------|
---------------------------------|
---------------------------------|
-0h2-x-x-7p5-x-x-0h2-x-x-7p5-x-x-|
-0h2-x-x-7p5-x-x-0h2-x-x-7p5-x-x-|

Bridge
(slight dist.)
---------------------------|
---------------------------|
---2p0--5p2----------------|
------0----0-0-3-----------|
--3----3----3---2------3-5-|
-0---------------3-0-0-3-5-|
      ..   ...     . .

(dist.)
-----------------|
-----------------|
-----------------|
-----------------|
-0-3-x-0-3---5---|
-0-3-x-0-3---5---|
 .     .

-----------------|
-----------------|
-----------------|
-----------------|
-x-5-x-x-5-x-5-x-|
-x-5-x-x-5-x-5-x-|

I don't know the last four chords.

8. QUESTION?:

Intro (PHs 8th time only)
            PH     PH    PH
----|---------------------------|
----|---------------------------|
----|---------------------------|
----|---------------------------|
----|--------9-----6h8---8p6----|
-3/-|-8-8-8-8-8-8-8---8-8---8-8-|
      . . . . . . .   . .   . .

Chorus/Outro
---------------------------------------------|
-11-11-11-12-12-11-11-11-11-9-9-9-9-11-11-11-|
-10-10-10-11-11-10-10-10-10-8-8-8-8-10-10-10-|
--8--8--8--9--9--8--8--8--8-6-6-6-6--8--8--8-|
--8--8--8--9--9--8--8--8--8-6-6-6-6--8--8--8-|
--8--8--8--9--9--8--8--8--8-6-6-6-6--8--8--8-|

Verses 1 and 2 are just the Intro with a PH on the last downbeat, but the 8th time with 
all three PHs.

Bridge
I'm not sure how this is played, but I'm pretty sure it's tremolo picked NHs. This is 
just how I play it.
 trem.
----------|-----------|
----------|-----------|
----------|-----------|
----------|-----------|
----------|-----------|
-<2>\<1>/-|-/<2>\<1>/-|

Verse 3
-------------------------------------------|
-11-11---11-11---11-11---11-11---11---11---|
-10-10---10-10---10-10---10-10---10---10---|
--8--8----8--8----8--8----8--8----8----8---|
--8--8----8--8----8--8----8--8----8----8---|
--8--8----8--8----8--8----8--8----8----8---|

Last chord
---------|
---------|
---------|
-8-------|
-8-------|
-8-------|

9. NO ONE'S KIND: (don't know)

10. SELF DESTRUCT:

Intro
(slight dist.)
----------------|
----------------|
----------------|
----------------|
-6/7-10\9-5-5/6-|
----8-----------|
    .     .

Verse
(dist.)
---------|---------|---------|-<5>-<5>-<5>-<5>-|
---------|---------|---------|-<5>-<5>-<5>-<5>-|
---------|---------|---------|-<5>-<5>-<5>-<5>-|
-2-------|---------|---------|-<5>-<5>-<5>-<5>-|
-2-------|---------|---------|-----------------|
-2-------|---------|---------|-----------------|

11. 4 WALLS:

Intro
(clean)
------------------|-----------------|
------------------|-----------------|
------------------|-----------------|
--7h8-----5-------|--7h8-----5----3-|
------5h6--5-6\5--|------5h6--5-----|
-5---5---5--8---3-|-5---5---5--8-3--|

------------------|------------------|
------------------|------------------|
------------------|------------------|
--7h8-----5-------|--7h8-----5-----3-|
------5h6--5-6\5--|------5h6--5---1--|
-5---5---5--8---3-|-5---5---5--5-3---|

Chorus
--------------|
--------------|
-7---7-7-5----|
-7---7-7-5----|
-5---5-5-3----|
-5---5-5-3----|

Bridge
(dist.)
---------------------------|
---------------------------|
-10-10-10-10-10-10-10\9----|
-----------------------10\-|
---------------------------|
---------------------------|
  .  .  .  .  .  .
Добавлено: 15.08.2013
Другие материалы по этой песне:
  • Аккорды и текст

Страница создана 15.08.2013
http://primanota.ru/staind/tormented-chords.htm
Привет, Гость.
Предлагаем пройти революционный курс по гитаре.
Подарок от PrimaNota.Ru, забирай!