PrimaNota.ru - самый крупный в мире бесплатный архив песенных текстов, аккордов, табулатур и нот


Staind - The Bottom - таба, видео

Регистрация Запомнить меня
Войти через:  Facebook Google Twitter Vk Yandex Mail.ru

Staind - The Bottom - таба, видео

Печатать
Просмотров: 315
this is in Drop B,...during the verse the notes on the low E string are played 
quietly, and yeah hope you like it

 X  = palm mute or the number of times played
*5* = play natural harmonic
(0) = use a wah-wah type effect


 Main riff
|--------(0)----------(0)------------(0)----------(0)-|
|--------(0)----------(0)------------(0)----------(0)-|
|-----------------------------------------------------|
|-2-2--------2-2----2---------2-2--------2-2----2-----|   x2
|-2-2--------2-2----2---------2-2--------2-2----2-----|
|-2-2--------2-2----2-------2-2-2--------2-2----2-----|
  x x        x x    x       x x x        x x    x  


 Verse (guitar 1)
|---------------------------------------------------------|
|---------------5-------------3---------------------------|
|-4-----4-------------5-------------2-------4-------------|
|-------------------------------------------------2-------|   x4 
|---------------------------------------------------------|
|----2----2-2-2----2----2-2-2----2----2-2-2----2----2-2-2-|

 Verse (guitar 2)
|--------(0)----------|
|--------(0)----------|
|---------------------|
|-2-2--------2-2----2-|   x4
|-2-2--------2-2----2-|
|-2-2--------2-2----2-|
  x x        x x    x 


 Main Riff  x1


 Chorus   (just chords, you can figure out the strum pattern)
|------------------------|
|--------------------*5*-|
|------------------------|
|-2--------10----7-*5*---|   x4
|-2--------10----7-------|
|-2--------10----7-------|


 Main Riff  x1


 Verse (guitar 1)
|---------------------------------------------------------|
|---------------5-------------3---------------------------|
|-4-----4-------------5-------------2-------4-------------|
|-------------------------------------------------2-------|   x4 
|---------------------------------------------------------|
|----2----2-2-2----2----2-2-2----2----2-2-2----2----2-2-2-|

 Verse (guitar 2)
|--------(0)----------|
|--------(0)----------|
|---------------------|
|-2-2--------2-2----2-|   x6
|-2-2--------2-2----2-|
|-2-2--------2-2----2-|
  x x        x x    x 


 Main Riff  x1


 Chorus  x4


 Bridge (part 1)
|---------------------------------|
|---------------------------------|
|---------------------------------|
|---------------------------------|   x2
|---------------------------------|
|-0h2-2-2-0h2-2-2-0h2-2-2-2h3-3-3-|

|---------------------------------|
|---------------------------------|
|---------------------------------|
|-0h2-2-2-0h2-2-2-0h2-2-2-2h3-3-3-|   x8
|-0h2-2-2-0h2-2-2-0h2-2-2-2h3-3-3-|
|-0h2-2-2-0h2-2-2-0h2-2-2-2h3-3-3-|

 Bridge (part 2)
|--------------------------------------------------------------|
|-------------------------*5*------------------------------*5*-|
|--------------------------------------------------------------|
|-2-2-2-2-2---2-2-2-2-2-*5*---10-10-10-10-10---7-7-7-7-7-*5*---|
|-2-2-2-2-2---2-2-2-2-2-------10-10-10-10-10---7-7-7-7-7-------|
|-2-2-2-2-2---2-2-2-2-2-------10-10-10-10-10---7-7-7-7-7-------|
  x x x x     x x x x          x  x  x  x      x x x x     


 Chorus  x4


 Main Riff  x2


 Outro  (guitar 1)
|------|
|------|
|------|
|-0----|
|-0----|
|-0----|

 Outro  (guitar 2)
|---------------------------------------------------------|
|---------------5-------------3---------------------------|
|-4-----4-------------5-------------2-------4-------------|
|-------------------------------------------------2-------|    
|---------------------------------------------------------|
|----2----2-2-2----2----2-2-2----2----2-2-2----2----2-2-2-|

|-----------------------------------------------|
|---------------5-------------3--------------5--|
|-4-----4-------------5-------------2--------4--|
|--------------------------------------------2--|
|--------------------------------------------2--|
|----2----2-2-2----2----2-2-2----2----2-2-2--2--|
Добавлено: 05.04.2012
Другие материалы по этой песне:

Страница создана 05.04.2012
http://primanota.ru/staind/the-bottom-chords.htm
Привет, Гость.
Предлагаем пройти революционный курс по гитаре.
Подарок от PrimaNota.Ru, забирай!