PrimaNota.ru - самый крупный в мире бесплатный архив песенных текстов, аккордов, табулатур и нот


Staind - Something To Remind You Liveacoustic - таба, видео

Регистрация Запомнить меня
Войти через:  Facebook Google Twitter Vk Yandex Mail.ru

Staind - Something To Remind You Liveacoustic - таба, видео

Печатать
Просмотров: 321
-----------------------------------------------------------------------
        Something to Remind You (Live/Acoustic) - Staind
-----------------------------------------------------------------------
Tabbed by: sonofguido
Email: wazevedo913@gmail.com

Tuning: Eb (high to low - Eb,Ab,Db,Gb,Bb,Eb)

This is the live acoustic version that is all over YouTube. Listen to the
song for strumming. Each line of the lyrics is a chord change (approx.).
Any questions/corrections, please let me know.

Intro AND Verse 1:
e|--0--0--0--0----------|
B|--3--3--3--3----------|
G|--4--4--4--4----------|
D|--4--4--4--4----------|
A|--2--0--x--x----------|
E|--x--x--3--2----------|

So this is it, I say
goodbye to this
chapter of my ever-changing
life...
These mistakes, the
path is long, and I'm sure
I'll answer for them when I'm 
gone...

Pre-Chorus 1:
e|--3--3--0--x----------|
B|--3--2--0--x----------|
G|--0--3--0--3----------|
D|--0--0--2--4----------|
A|--0--0--2--4----------|
E|--3--x--0--2----------|

When the day comes in and the
sun won't touch my face
Tell the ones who cared enough that
I finally left this place...

Chorus 1:
e|--0--0--0--0--0--0--3--0--3--0--|
B|--3--3--3--0--3--0--3--0--3--3--|
G|--4--4--4--2--4--2--0--2--0--4--|
D|--4--4--4--2--4--2--0--2--0--4--|
A|--2--0--x--0--2--0--0--0--0--2--|
E|--x--x--3--x--x--x--3--x--3--x--|

It's been so cold, look at my
face, all the
stories it will tell I can't
erase, the road is
long, just one
more song, a little
something to remind you when I'm
gone...
When I'm,
gone...

Post-Chorus 1 AND Verse 2:
e|--0--0--0--0----------|
B|--3--3--3--3----------|
G|--4--4--4--4----------|
D|--4--4--4--4----------|
A|--2--0--x--x----------|
E|--x--x--3--2----------|

The road to Hell, along
the way is
paved with good intentions so they
say and some 
believe That no 
good deed goes 
unpunished in the end or so it 
seems...

Pre-Chorus 2:
e|--3--3--0--x----------|
B|--3--2--0--x----------|
G|--0--3--0--3----------|
D|--0--0--2--4----------|
A|--0--0--2--4----------|
E|--3--x--0--2----------|

And when the day comes in and the
sun won't touch my face
Tell the ones who cared enough that
I finally left this place...

Chorus 2:
e|--0--0--0--0--0--0--3--0--3--0--|
B|--3--3--3--0--3--0--3--0--3--3--|
G|--4--4--4--2--4--2--0--2--0--4--|
D|--4--4--4--2--4--2--0--2--0--4--|
A|--2--0--x--0--2--0--0--0--0--2--|
E|--x--x--3--x--x--x--3--x--3--x--|

That's been so cold, look at my
face, all the
stories it will tell I can't
erase, the road is
long, just one
more song, a little
something to remind you when I'm
gone...
When I'm,
gone...

Post-Chorus 2:
e|--0--0--0--0----------|
B|--3--3--3--3----------|
G|--4--4--4--4----------|
D|--4--4--4--4----------|
A|--2--0--x--x----------|
E|--x--x--3--2----------|

Verse 3/Outro:
e|--0--0--0--0--0--0--0--0--3--0--|
B|--3--3--3--3--3--3--3--0--3--3--|
G|--4--4--4--4--4--4--4--2--0--4--|
D|--4--4--4--4--4--4--4--2--0--4--|
A|--2--0--x--x--2--0--x--0--0--2--|
E|--x--x--3--2--x--x--3--x--3--x--|

So this is it, I 
say goodbye to this
chapter of my ever-changing
life... and
These mistakes, the
path is long, and I'm sure
I'll answer for them when I'm 
gone...
When I'm
gone.............


************************************
| /   slide up
| \   slide down
| h   hammer-on
| p   pull-off
| ~   vibrato
| +   harmonic
| x   Mute note
| b   Bend
| pb  Pre-bend
| br  Bend release
| pbr Pre-bend release
| brb Bend release bend
************************************
Добавлено: 12.04.2012
Другие материалы по этой песне:
  • Аккорды и текст

Страница создана 12.04.2012
http://primanota.ru/staind/something-to-remind-you-liveacoustic-chords.htm
Привет, Гость.
Предлагаем пройти революционный курс по гитаре.
Подарок от PrimaNota.Ru, забирай!