PrimaNota.ru - самый крупный в мире бесплатный архив песенных текстов, аккордов, табулатур и нот


Staind - Not Again - текст песни, таба, бас-таба, видео

Регистрация Запомнить меня
Войти через:  Facebook Google Twitter Vk Yandex Mail.ru

Staind - Not Again - текст песни, таба, бас-таба, видео

Печатать
Просмотров: 258
LEGEND:
PM-Palm Mute
{*} - Staccato 
h- hammer-on
p- pull-off
Tuning Drop C#/Db (low to high): Db,Ab,Db,Gb,Bb,Eb

INTRO:
|-------------------------------------------------------------|
|-------------------------------------------------------------|
|-------------------------------------------------------------|
|------0-----0-----0----0------0----0-------------------------|
|----0-----0-----0----0------0----0---------------------------|
|--0-----0-----8----8------0----0-----8-----------------------|

|-------------------------------------------------------------|
|-------------------------------------------------------------|
|-------------------------------------------------------------|
|--10-10-10-{10}---{8}---{5}---0-0-1-1-1-0-h1--0-0-1-1-1-0-h1-|
|--10-10-10-{10}---{8}---{5}---0-0-1-1-1-0-h1--0-0-1-1-1-0-h1-|
|--10-10-10-{10}---{8}---{5}---0-0-1-1-1-0-h1--0-0-1-1-1-0-h1-|
                                PM . . .           . . .
|--------------------------------------------------------------|
|--------------------------------------------------------------|
|--------------------------------------------------------------|      
|10-10-10-p9-10-10-{10}-{8}-{5}--0-0-1-1-1-0-p1--0-0-1-1-1-0-p1| 
|10-10-10-p9-10-10-{10}-{8}-{5}--0-0-1-1-1-0-p1--0-0-1-1-1-0-p1|
|10-10-10-p9-10-10-{10}-{8}-{5}--0-0-1-1-1-0-p1--0-0-1-1-1-0-p1|
                                   PM  . . .         . . .
|------------------------------------|
|------------------------------------|
|------------------------------------|
|10-10-10-p9-10-10-{10}-{8}-{5}--0---|
|10-10-10-p9-10-10-{10}-{8}-{5}--0---|
|10-10-10-p9-10-10-{10}-{8}-{5}--0---|

VERSE:

"Do you feel..."
|---------------------------------|\
|---------------------------------| \
|------------------5--5-----------|  \ 4x 
|----0--0---3--3--5--5---5--5-----|  /
|---0--0---3--3--3--3---5--5------| /
|--0--0---3--3---------5--5-------|/

PRE-CHORUS:

"AGAIN!"
|----------------------------------------|
|----------------------------------------|
|----------------------------------------|
|--0-0-1-1-1-0-h1--0-0-1-1-1-0-h1--------|
|--0-0-1-1-1-0-h1--0-0-1-1-1-0-h1--------|
|--0-0-1-1-1-0-h1--0-0-1-1-1-0-h1--------|
     PM. . .          . . .

"Denial isn't the way.."                                
|----------------------------------------------------------------|         
|----------------------------------------------------------------|         
|----------------------------------------------------------------|
|-10-10-10-p9-10-10-{10}-{8}-{5}-0-0-1-1-1-0-h1--0-0-1-1-1-0-h1--|
|-10-10-10-p9-10-10-{10}-{8}-{5}-0-0-1-1-1-0-h1--0-0-1-1-1-0-h1--|
|-10-10-10-p9-10-10-{10}-{8}-{5}-0-0-1-1-1-0-h1--0-0-1-1-1-0-h1--|
                                   PM. . .           . . .
"You always swore that I.."
|----------------------------------------------|
|----------------------------------------------|
|----------------------------------------------|
|-10-10-p9-10-10-{10}-{8}-{5}------------------|
|-10-10-p9-10-10-{10}-{8}-{5}------------------|
|-10-10-p9-10-10-{10}-{8}-{5}------------------|

CHORUS:

"Not Again.."
|------------------------------------------------------|\
|------------------------------------------------------| \
|------------------------------------------------------|  \  3x
|-8-8-{10}-{7}--7-7-7-7-7-7---0-0-0-0-0-0--0-0-0-0-0-0-|  /
|-8-8-{10}-{7}--7-7-7-7-7-7---0-0-0-0-0-0--0-0-0-0-0-0-| /
|-8-8-{10}-{7}--7-7-7-7-7-7---0-0-0-0-0-0--0-0-0-0-0-0-|/
              PM. . . . . .       . .          . .

"again and again"
|---------------------|
|---------------------|
|---------------------|
|-8-8-{10}-7---------0|
|-8-8-{10}-7---------0|
|-8-8-{10}-7---------0|

Repeat VERSE

Repeat PRE-CHORUS

Repeat CHORUS


BRIDGE: Rhythm follows same progression as VERSE throughout and goes to PRE-CHORUS about 
3/4's of the way through. Just listen for it.

CHORUS


OUTRO:

"AGAIN!"
|---------------------------------|
|---------------------------------| 
|---------------------------------|  
|-0-0-1-1-1-0-h1--0-0-1-1-1-0-h1--|  
|-0-0-1-1-1-0-h1--0-0-1-1-1-0-h1--|  
|-0-0-1-1-1-0-h1--0-0-1-1-1-0-h1--|
    PM. . .           . . .
 
Добавлено: 18.06.2012
Другие материалы по этой песне:
  • Аккорды и текст

Страница создана 02.04.2012
http://primanota.ru/staind/not-again-chords.htm
Привет, Гость.
Предлагаем пройти революционный курс по гитаре.
Подарок от PrimaNota.Ru, забирай!