PrimaNota.ru - самый крупный в мире бесплатный архив песенных текстов, аккордов, табулатур и нот


Staind - Mudshovel Live - таба, видео

Регистрация Запомнить меня
Войти через:  Facebook Google Twitter Vk Yandex Mail.ru

Staind - Mudshovel Live - таба, видео

Печатать
Просмотров: 186
Song   > Mudshovel / live 
Album  > live @ Family values tour '99 
Tabber > Goran Kalamiza / wes7boiler@hotmail.com 
Tabbed > 26th July, 2005 / 21:56 +0100 GMT / Bjelovar, Croatia 

!NOTE! > There's a cath with guitar/tuning in Staind's songs 
         Here's what Mike (Staind guitarist) himself says about his mean guitar: 
         “On my signature baritone, I get completely stable tuning and better 
         articulation with fuller tone than I could ever achieve with a standard 
         guitar-no matter what tuning or how aggressively I play.” -Mike Mushok 
         Mike Mushok Ibanez signature model guitar (MMM1) 
         The basics: 
         > Matte finished mahogany body and thru-neck provide gargantuan tone 
           and sustain 
         > 28” scale baritone neck offers the ability to achieve all kinds of low 
           tunings 
         > Super 58 pickups custom wound for baritone 
         > Tuning machines feature low string posts for higher tension of the nut 
         > Factory tuning is A#-F-C#-G#-D#-A#(1 to 6) 

Tuning > Ab-Db-Ab-Db-Gb-Bb / low to high 


[00:29], [01:04], [01:40], [02:07] 
Main riff (these are all natural harmonics slided from 5th-3rd fret) 
Bb[-----------------------------------------------------------------] 
Gb[-----------------------------------------------------------------] 
Db[-----------------------------------------------------------------] 
Ab[-5*5*5*5*4*4*4*4*3*3*3*3*4*4*4*4*5*5*5*5*4*4*4*4*3*3*3*3*4*4*4*4-] 
Db[-----------------------------------------------------------------] 
Ab[-----------------------------------------------------------------] 


[00:47], [01:49], [03:10] 
Verse (also natural harmonics) 
Bb[-----------------------------------------------------------------] 
Gb[-----------------------------------------------------------------] 
Db[-----------------------------------------------------------------] 
Ab[-5*~~~~~~~~~~~~~~~~~~~~~~~~~~~~~---------------------------------] 
Db[---------------------------------6*~~~~~~~~~~~~~~~~~~~~~~~~~-4*--] 
Ab[-----------------------------------------------------------------] 

Bb[-----------------------------------------------------------------] 
Gb[-----------------------------------------------------------------] 
Db[-----------------------------------------------------------------] 
Ab[-3*~~~~~~~~~~~~~~~~~~~~~~~~~~~~~~~~~~~~~~~~~~~~~~~~~~~~~~~~~~~~~-] 
Db[-----------------------------------------------------------------] 
Ab[-----------------------------------------------------------------] 


[01:22], [02:25], [03:46] 
Chorus (type #1) 
Bb[-----------------------------------------------------------------] 
Gb[-----------------------------------------------------------------] 
Db[-------------------------------p-5~~~~~~~~~~~~~~~------------5---] 
Ab[-------------------------------m-3~~~~~~~~~~~~~~~------------3---] 
Db[-2-|---2-|---2-|---2-|---2-|---2---------------------------------] 
Ab[-0-|---0-|---0-|---0-|---0-|---0---------------------------------] 

Bb[-----------------------------------------------------------------] 
Gb[-----------------------------------------------------------------] 
Db[-------------------------------p---------------------------------] 
Ab[-------------------------------m---------------------------------] 
Db[-7-|---7-|---7-|---7-|---7-|---7-5~~~~~~~~~~~~~~~----------------] 
Ab[-5-|---5-|---5-|---5-|---5-|---5-3~~~~~~~~~~~~~~~----------------] 

Chorus (type #2) 
Bb[-----------------------------------------------------------------] 
Gb[-----------------------------------------------------------------] 
Db[-------------------------------p---------------------------------] 
Ab[-------------------------------m-10~~~~~~~~~~~~~~------------10--] 
Db[-2-|---2-|---2-|---2-|---2-|---2-10~~~~~~~~~~~~~~------------10--] 
Ab[-0-|---0-|---0-|---0-|---0-|---0---------------------------------] 

Bb[-----------------------------------------------------------------] 
Gb[-------------------------------p---------------------------------] 
Db[-------------------------------m---------------------------------] 
Ab[-0-|---0-|---0-|---0-|---0-|---0---------------------------------] 
Db[-0-|---0-|---0-|---0-|---0-|---0-5~~~~~~~~~~~~~~~----------------] 
Ab[---------------------------------3~~~~~~~~~~~~~~~----------------] 


[02:43], [04:21] 
Bridge 
Bb[-----------------------------------------------------------------] 
Gb[-----------------------------------------------------------------] 
Db[-----------------------------------------------------------------] 
Ab[-5~~---0~~---6~~-----------------5~~---0~~---6~~-----------------] 
Db[-5~~---0~~---6~~---------5-------5~~---0~~---6~~---------5-------] 
Ab[-------------------0-----3---0---------------------0-----3---0---] 


[04:39] 
Outro 
Bb[-----------------------------------------------------------------] 
Gb[-----------------------------------------------------------------] 
Db[-----------------------------------------------------------------] 
Ab[-0-|-------------------------------------------------------------] 
Db[-2-|-------------------------------------------------------------] 
Ab[-0-|-------------------------------------------------------------] 


The Legend 
-------   -------   ------- 
-------   -------   ------- 
-------   -------   -p----- 
-#*----   -------   -m----- 
-------   -#-|---   -#----- 
-------   -#-|---   -#----- 
natural   rest/     palm 
harmonic  /stop     muted 


If your band or yourself want to play this song in standard 'E' tuning,
you can play verse like this:
E[-----------------------------------------------------------------|---]
B[-12*-------------------------------------------------------------|---]
G[---------------------------------7*------------------------------|---]
D[-------------------------------(12*)-----------------------------|-4*]
A[-----------------------------------------------------------------|---]
E[-(7*)--------------------------------------------------------4*--|---]
Добавлено: 19.07.2012
Другие материалы по этой песне:
  • Аккорды и текст

Страница создана 19.07.2012
http://primanota.ru/staind/mudshovel-live-chords.htm
Привет, Гость.
Предлагаем пройти революционный курс по гитаре.
Подарок от PrimaNota.Ru, забирай!