PrimaNota.ru - самый крупный в мире бесплатный архив песенных текстов, аккордов, табулатур и нот


Staind - King Of All Excuses - текст песни, таба, видео

Регистрация Запомнить меня
Войти через:  Facebook Google Twitter Vk Yandex Mail.ru

Staind - King Of All Excuses - текст песни, таба, видео

Печатать
Просмотров: 196
-------------------------------------------------------------------------------
                             King of All Excuses - Staind
-------------------------------------------------------------------------------
Tabbed by: Erik Dunnivan
Email: papershavings@hotmail.com

Tuning: Drop A (AEADGB) on Baritone

Intro
B|----------------------------------|
G|----------------------------------|
D|----------------------------------| x6
A|---3/2p0-2--3/2p0-2--2/3----------|
E|---3/2p0-2--3/2p0-2--2/3----------|
A|---3/2p0-2--3/2p0-2--2/3----------|

Verse
B|-----------------------------------------|
G|-----------------------------------------|
D|-----------------------------------------|
A|-----------------------------------------| x3
E|---222-----555---------------------------|
A|-------555-----444-555-000-2-2-2---------|
PM   ... ... ... ... ... ... . . .

B|-----------------------------------------|
G|-----------------------------------------|
D|-----------------------------------------|
A|------------------55555-55555------------|
E|--222-----555-----55555-55555------------|
A|------555-----444-55555-55555------------|

Chorus
B|-----------------------------------------|
G|-----------------------------------------|
D|-----------------------------------------|
A|--77--33-00---10/9---77-33-00-9999999----| x2
E|--77--33-00----------77-33-00-9999999----|
A|--77--33-00----------77-33-00-9999999----|

B|----------------------------------|
G|----------------------------------|
D|----------------------------------| x4
A|---3/2p0-2--3/2p0-2--2/3----------|
E|---3/2p0-2--3/2p0-2--2/3----------|
A|---3/2p0-2--3/2p0-2--2/3----------|

Verse
B|-----------------------------------------|
G|-----------------------------------------|
D|-----------------------------------------|
A|-----------------------------------------| x3
E|---222-----555---------------------------|
A|-------555-----444-555-000-2-2-2---------|
PM   ... ... ... ... ... ... . . .

B|-----------------------------------------|
G|-----------------------------------------|
D|-----------------------------------------|
A|------------------55555-55555------------|
E|--222-----555-----55555-55555------------|
A|------555-----444-55555-55555------------|

Chorus
B|-----------------------------------------|
G|-----------------------------------------|
D|-----------------------------------------|
A|--77--33-00---10/9---77-33-00-9999999----| x2
E|--77--33-00----------77-33-00-9999999----|
A|--77--33-00----------77-33-00-9999999----|

Bridge
B|-----------------------------------------|
G|-----------------------------------------|
D|-----------------------------------------|
A|-----------------------------------------|
E|-0000000000000-0000000000 000000000--0---|
A|-----------------------------------------|

B|----------------------------------------------|
G|----------------------------------------------|
D|----------------------------------------------|
A|--2/3-33-3/2-2--999-55--2/3-33-3/2-2--9--5----|
E|--2/3-33-3/2-2--999-55--2/3-33-3/2-2--9--5----|
A|--2/3-33-3/2-2--999-55--2/3-33-3/2-2--9--5----|
PM      ..                    ..

B|------------------------------------------------|
G|------------------------------------------------|
D|------------------------------------------------|
A|--2/3-33-3/2-2--999-55--2/3-33-3/2-2-3333/2-2---|
E|--2/3-33-3/2-2--999-55--2/3-33-3/2-2-3333/2-2---|
A|--2/3-33-3/2-2--999-55--2/3-33-3/2-2-3333/2-2---|
PM      ..                    ..

Chorus
B|-----------------------------------------|
G|-----------------------------------------|
D|-----------------------------------------|
A|--77--33-00---10/9---77-33-00-9999999----| x4
E|--77--33-00----------77-33-00-9999999----|
A|--77--33-00----------77-33-00-9999999----|

Outro
B|----------------------------------|
G|----------------------------------|
D|----------------------------------| x5
A|---3/2p0-2--3/2p0-2--2/3----------|
E|---3/2p0-2--3/2p0-2--2/3----------|
A|---3/2p0-2--3/2p0-2--2/3----------|


| /  slide up
| \  slide down
| h  hammer-on
| p  pull-off
| ~  vibrato
| +  harmonic
| x  Mute note
===============================================================================
Добавлено: 29.06.2012
Другие материалы по этой песне:
  • Аккорды и текст

Страница создана 22.02.2012
http://primanota.ru/staind/king-of-all-excuses-chords.htm
Привет, Гость.
Предлагаем пройти революционный курс по гитаре.
Подарок от PrimaNota.Ru, забирай!