PrimaNota.ru - самый крупный в мире бесплатный архив песенных текстов, аккордов, табулатур и нот


Staind - Just Go V2 - таба, видео

Регистрация Запомнить меня
Войти через:  Facebook Google Twitter Vk Yandex Mail.ru

Staind - Just Go V2 - таба, видео

Печатать
Просмотров: 99
    Staind - Just Go -Dysfunction

Tuning: drop D tuned down a half step
     *intro (gtr. - CLEAN) 
E------------------------------------------I 
B------------------------------------------I 
G------------------------------------------I PLAY 2x 
D------------------------------------------I 
A--8---------------------------------------I 
D----10---0---10--12---0--3^5--5--3--------I 

                ~Band in~ 
E------------------------------------------------------------------------I 
B------------------------------------------------------------------------I 
G--10-----------------------------------10-------------------------------IREPEAT
D--10--10--0--10-12-x-3-/-5--5--0-3-0---10--10--0--10--12-0--3--5--0-3---I 
A---8--10--0--10-12-x-3-/-5--5--0-3-0----8--10--0--10--12-0--3--5--0-3---I 
D------10--0--10-12-x-3-/-5--5--0-3-0-------10--0--10--12-0--3--5--0-3---I 

            *VERSE: 
        (cleaner tone) 
  
E---------------------------------I 
B---------------------------------I 
G---------------------------------I  REPEAT 
D----------------|----------------I 
A--8-------------|--8-------------I 
D----10--0---0---|-----10--9------I 
  
        *CHORUS: 
E------------------------------------------------------------------------I 
B------------------------------------------------------------------------I 
G--10-----------------------------------10-------------------------------IREPEAT
D--10--10--0--10-12-x-3-/-5--5--0-3-0---10--10--0--10--12-0--3--5--0-3---I 
A---8--10--0--10-12-x-3-/-5--5--0-3-0----8--10--0--10--12-0--3--5--0-3---I 
D------10--0--10-12-x-3-/-5--5--0-3-0-------10--0--10--12-0--3--5--0-3---I 

  
                BRIDGE 1: 

 i feel so.... 
                gtr 1 

E----------------------------------------I 
B----------------------------------------I 
G----------------------------------------I REPEAT 
D----------------------------------------I 
A----------------------------------------I 
D--7--5--3-----7--10--9------------------I 
| 
|               gtr 2 
E------------------5---------------------I 
B--6-5-8-5-6-5-8-5-----------------------I 
G----------------------------------------I REPEAT 
D----------------------------------------I 
A----------------------------------------I 
D----------------------------------------I 
  
  
  
  
  
  

                BRIDGE 2: 
 i'm water.... 

with slight palm mutes 

E----------------------------------------I 
B----------------------------------------I 
G----------------------------------------I REPEAT (rest on 1) 
D-0-2-0-2-0-2-0-1------------------------I 
A-0-2-0-2-0-2-0-1------------------------I 
D-0-2-0-2-0-2-0-1------------------------I 
  
  
  

            *OUTRO: 

   just, just... 
E--------------------------I 
B--------------------------I 
G--------0----------0-0----I 
D--------0----------0-0----I 
A-8------0---8------0-0----I 
D---10^--0-----10^--0-0----I 

  lies  lies..etc. 
E------------------------------I 
B------------------------------I 
G------------------------------I 
D--0----0----------------------I 
A--0----0----------------------I 
D--0----0----------------------I 
     
Добавлено: 03.11.2013
Другие материалы по этой песне:
  • Аккорды и текст

Страница создана 03.11.2013
http://primanota.ru/staind/just-go-v2-chords.htm
Привет, Гость.
Предлагаем пройти революционный курс по гитаре.
Подарок от PrimaNota.Ru, забирай!