PrimaNota.ru - самый крупный в мире бесплатный архив песенных текстов, аккордов, табулатур и нот


Staind - Change - аккорды и текст, бас-таба, видео

Регистрация Запомнить меня
Войти через:  Facebook Google Twitter Vk Yandex Mail.ru

Staind - Change - аккорды и текст, бас-таба, видео

Печатать
Просмотров: 190
Change
Staind
Author/Artist: Staind
Title: Change
Album: Break the Cycle
Transcribed by: Adam Quigley
Email: IgtChiks@aol.com

All of my Tablature is 100% correct.  A baritone guitar is
required to play this song as it is with most of staind's music.
Tuning from low to high( Ab Db Ab Db Gb Bb)

-|----------------------------|-------------------------------|---------------|
-|----------------------------|-------------------------------|---------------|
-|----------------------------|-------------------------------|---------------|
-|----12-12-12-12-14--10------|--12-12-12-12-14---10---0--3---|--12-12-12-12--|
-|----12-12-12-12-12--10------|--12-12-12-12-12---10---0--3---|--12-12-12-12--|
-|----12-12-12-12-12--10------|--12-12-12-12-12---10----------|--12-12-12-12--|
                                           Verse riff:

----------|----------------------------||-----------------------------|-------|
----------|----------------------------||-----10----------------------|-------|
----------|----------------------------||--12-----0--14------14-------|-------|
-14--10---|-12-12-12-12-14--10---0--3--||--12--------10---------10----|-------|
-12--10---|-12-12-12-12-12--10---0--3--||--12----------------------0--|-------|
-12--10---|-12-12-12-12-12--10---------||-----------------------------|-------|


---------------------------|---------------------------|---------------------|
---------------------------|-----10--------------------|----------0---0------|
-10--10----12---12---------|-12------0--14---14--------|-10-------0------0---|
--7-----0--10-------10-----|-12---------10-------10----|--7-------3----------|
--7--------10-----------0--|-12----------------------0-|--7---0---3--------0-|
---------------------------|---------------------------|---------------------|
                              Chorus:

-|-------------------------||----------------------------------|--------------|
-|-------------------------||----------------------------------|--------------|
-|-------------------------||----------------------------------|---------3----|
-|-7--7--7--7--7--7--7--7--||-10-----5----5--5--5--5--5--5--5-|---------3----|
-|-7--7--7--7--7--7--7--7--||-10-----5----5--5--5--5--5--5--5-|-7-------3----|
-|-------------------------||-10------------------------------|-5------------|


-----|----------------|---------------|---------------------------------------|
-----|----------------|---------------|---------------------------------------|
-----|--3---------3---|--3----------3-|---------------------------------------|
-----|--3---------3---|--3----------3-|---------------------------------------|
-7---|--3------7--3---|--3------7---3-|---------------------------------------|
-5---|---------5------|---------5-----|---------------------------------------|
  Interlude:

-|------------------------|-----------------------------|--------------------|
-|------------------------|-----------------------------|--------------------|
-|------------------------|-----------------------------|--------------------|
-|--12-12-12-12-14--10----|-12-12-12-12-14--10----0---3-|-12-12-12-12-14--10-|
-|--12-12-12-12-12--10----|-12-12-12-12-12--10----0---3-|-12-12-12-12-12--10-|
-|--12-12-12-12-12--10----|-12-12-12-12-12--10----------|-12-12-12-12-12--10-|
                                 Bridge:(play 4 times)

-|----------------------------||------------------|---------------------||----|
-|----------------------------||------------------|-------------------0-||----|
-|----------------------------||----------------0-|-0-----------------0-||----|
-|-12-12-12-12-14--10---0---3-||-0-h-2--0---0---0-|-0-h-2---0-----0---3-||----|
-|-12-12-12-12-12--10---0---3-||-0-h-2--0---0---0-|-0-h-2---0--5--0---3-||----|
-|-12-12-12-12-12--10---------||------------------|------------3--------||----|
  play this riff the rest of the way out:

-|---------------------|------------------------------|----------------------|
-|---------------------|------------------------------|----------------------|
-|---------------------|------------------------------|----------------------|
-|-12-12-12-12-14--10--|-12-12-12-12-14--10----0---3--|-12-12-12-12-14--10---|
-|-12-12-12-12-12--10--|-12-12-12-12-12--10----0---3--|-12-12-12-12-12--10---|
-|-12-12-12-12-12--10--|-12-12-12-12-12--10-----------|-12-12-12-12-12--10---|


-|---------------------------------------------------------------------------|
-|---------------------------------------------------------------------------|
-|---------------------------------------------------------------------------|
-|--------12-12-12-12-14---10----0----3--------------------------------------|
-|--------12-12-12-12-12---10----0----3--------------------------------------|
-|--------12-12-12-12-12---10------------------------------------------------|
Добавлено: 24.05.2012
Другие материалы по этой песне:
  • Аккорды и текст

Страница создана 24.05.2012
http://primanota.ru/staind/change-chords.htm
Привет, Гость.
Предлагаем пройти революционный курс по гитаре.
Подарок от PrimaNota.Ru, забирай!