PrimaNota.ru - самый крупный в мире бесплатный архив песенных текстов, аккордов, табулатур и нот


Stahlberger - Die Gschicht Isch Besser - аккорды и текст, видео

Регистрация Запомнить меня
Войти через:  Facebook Google Twitter Vk Yandex Mail.ru

Stahlberger - Die Gschicht Isch Besser - аккорды и текст, видео

Печатать
Просмотров: 46
Die Gschicht Isch Besser
Stahlberger
Stahlberger - Die Gschicht isch besser
(vom Album "Die Gschicht isch besser")

INTRO 
                Bm     Bm     D     A      Bm     Bm 
e|--------------------------------------9--10------------|
B|----7--10----------------------7--10-------------------|
G|-----------9--7----------------------------------------|
D|-------------------------------------------------------|
A|-------------------------------------------------------|
E|-------------------------------------------------------|

                  D                      A
Die Gschicht isch bekannt, sie sitzed im Zug
            Bm
aber nöd im gliche

          D                            A
Beidi Züg fahred, sie gsehnd sich durs Fenster
                  Bm
aber denn chunt e Weiche

       D                A
Und es triibt sie usenand
    Bm
sie hend sich nie kennt
    G
sie lueged sich id Auge
A
für en churze Moment


REFRAIN

                       D      A     Bm     Bm
Aber die Gschicht isch besser
                      D
jo, die Gschicht isch besser
      A             G              A
Beidi Züg fahred in gliche Bahnhof ih
         D                       A
und i de Underfüehrig oder bi de Schlüssfächer
               G         A
stönd sie sich plötzlech vis-à-vis
                      G
Jo, die Gschicht isch besser
                  A
die Gschicht isch besser
                  G         A 
die Gschicht isch besser


   D     A      Bm     Bm     D     A      Bm     Bm 
e|--------------------------------------9--10------------|
B|----7--10----------------------7--10-------------------|
G|-----------9--7----------------------------------------|
D|-------------------------------------------------------|
A|-------------------------------------------------------|
E|-------------------------------------------------------|


                  D                      A
Die Gschicht isch bekannt, sie hend sich gfunde 
           Bm
de Abspann chunt s'wird hell im Saal

D                  A
Dlüüt gönd hei und sie blibed do
    Bm
und alles wird recht normal

       D                 A
Und es triibt sie usenand
    Bm
sie wüssed gar nöd gnau wieso
          G
und irgendwenn seit öper vo beidne
A
er oder sie i mues goh


REFRAIN

                       D      A     Bm     Bm
Aber die Gschicht isch besser
                      D
jo, die Gschicht isch besser
    A                  G                  A
Sie hend sich gseh wos alt sind gescht im Bus
              D                A
hend sie sich gseh wos alt sind
    G                 A
und s'gseht sehr guet us
                      G
Jo, die Gschicht isch besser
                  A
die Gschicht isch besser
                  G         A 
die Gschicht isch besser
Добавлено: 29.09.2015
Другие материалы по этой песне:
  • Аккорды и текст

Страница создана 29.09.2015
http://primanota.ru/stahlberger/die-gschicht-isch-besser-chords.htm
Привет, Гость.
Предлагаем пройти революционный курс по гитаре.
Подарок от PrimaNota.Ru, забирай!