PrimaNota.ru - самый крупный в мире бесплатный архив песенных текстов, аккордов, табулатур и нот


Staggered Crossing - Further Again - аккорды и текст, таба, видео

Регистрация Запомнить меня
Войти через:  Facebook Google Twitter Vk Yandex Mail.ru

Staggered Crossing - Further Again - аккорды и текст, таба, видео

Печатать
Просмотров: 130
Further Again
Staggered Crossing
Artist:       Staggered Crossing
Tabbed Song:  Further Again
Tabbed by:    Rattice aka Caper_2000
E-Mail:       rattice@hotmail.com

Standard Tuning

Intro
    D

E |---
B |---
G |-7-
D |-7-
A |-5-
e |---

VERSES

Guitar 1

    D         C             C        Bb
E |--------------------------------------|
B |--------------------------------------|
G |--7--------5-------------5---------3--|
D |--7--------5-------------5---------3--|
A |--5--------3-------------3---------1--|
e |--------------------------------------|

Over the chords play something like this:

Guitar 2:

E |------------------------------------------------------|
B |------------------------------------------------------|
G |------------------------------------------------------|
D |---------------3--5--3----------3-------/5--3---------|
A |---5-hold---3-----------5--3--5---5--1--------5--3--5-|
e |------------------------------------------------------|

This is part is done at the same time as the above riff
but only happens sometimes(at the start of the song, and
after the POST-CHORUS)

Guitar 3:
E |---------------------------------------------------|
B |---------------------------------------------------|
G |---------------------------------------------------|
D |------------------------5--------7--5\3------------|
A |---5--------5/7------------------------------------|
e |---------------------------------------------------|


PRE-CHORUS & POST-CHORUS:

You can use power chords instead.  ie, C5 & G5

       C          G

E |----0----------3-------------|
B |----1----------3-------------|
G |----0----------0-------------|
D |----2----------0-------------|
A |----3----------x-------------|
e |---------------3-------------|


Now for the good part!!!

CHORUS

>From the video, the chord after the D minor is not C5 (powerchord) but
rather
somewhat of a D/C Who knows the name...? Just play it!

     Dm      D/C? A   G

E |---55--55--5---5---33--|
B |---66--66--6---5---33--|
G |---77--77--5---6---44--|
D |---77--77--7---7---55--|
A |---55--55--5---7---55--|
e |-----------8---5---33--|

The transistion is simply the D-minor, but move your pinky to the 8th
fret on low E

That should be enuff you get you started for sure.

This song kick ass!!! Any input comments or complaints are most welcome:

rattice@hotmail.com

     
Добавлено: 08.06.2013
Другие материалы по этой песне:
  • Аккорды и текст

Страница создана 26.03.2012
http://primanota.ru/staggered-crossing/further-again-chords.htm
Привет, Гость.
Предлагаем пройти революционный курс по гитаре.
Подарок от PrimaNota.Ru, забирай!