PrimaNota.ru - самый крупный в мире бесплатный архив песенных текстов, аккордов, табулатур и нот


Stadio - Acqua E Sapone - таба, видео

Регистрация Запомнить меня
Войти через:  Facebook Google Twitter Vk Yandex Mail.ru

Stadio - Acqua E Sapone - таба, видео

Печатать
Просмотров: 81
Авторы текста: Vasco Rossi
		   --------

Qualcuno l'aveva richiesta, così mi è venuta l'idea di trascriverla...
la mia versione è quella dell'album "Stadio mobile live"...
Fatemi sapere che ne pensate...

Gotenks


ACQUA E SAPONE   -   STADIO
Correzioni e suggerimenti a
gotrunks12@hotmail.com
[Courier new, 12]

Intro:
 Riff A (x4)
 Riff B (x4)
 Riff C (x4)

Solm
E' strepitosa, donna bambina
 Cm               D
donna vedrai, bambina se lo sai
meravigliosa, stramaliziosa
vieni e vedrai che cosa sentirai
una donna lo sa,
 sa già cosa ogni uomo sa come si fa...
una donna non ha,
 più bisogno di prove, più malizia non ha...

Riff C (x2)

Solm
Prendi una donna, rendila bella
  Cm              D
tu credi che si ricordi di te
non c'è una donna che ti perdona
se tu la rendi più importante di te
una donna lo sa,
 sa già cosa ogni uomo sa come si fa...
una donna non ha,
 più rispetto di te se è sicura di sè...

Eb  Bb  F7 Solm
 oh oh oh oh
 di notte poi si trucca lo sai
 e tutta la città impazzisce
 ormai si parla solo di lei
 della bambina che stupisce...

Riff A
Riff B
Riff C (x2)

Solm
E' strepitosa, donna bambina
  Cm           D
donna vedrai, bambina se lo sai
meravigliosa, stramaliziosa
vieni e vedrai che cosa sentirai
una donna lo sa,
 sa già cosa ogni uomo sa come si fa...
una donna non ha,
 più rispetto di te se è sicura di sè...

 oh oh oh oh
 di notte poi si trucca lo sai
 e tutta la città impazzisce
 ormai si parla solo di lei
 della bambina che stupisce...
 stupisce con la semplicità
 di una malizia che non nasce
 non nasce dalla vrità
 ma da un'adolescenza che fiorisce...

Riff C (x4)
Riff B (x2)


Riff A
E-------------------------------------
B--8----------------------------------
G----10-8----------11-----------------
D-----------10--12--------------------
A-------------------------------------
E-------------------------------------

Riff B
E----------------------------------------------
B--8--11-10-------11-10-8----------------------
G-----------10------------10-8--------11-------
D------------------------------10-12-----------
A----------------------------------------------
E----------------------------------------------

Riff C
E-------------------------------
B--11-11-10----11-11-10---------
G-----------10----------10------
D-------------------------------
A-------------------------------
E-------------------------------

E----------------------------------------------
B--11-11-10-----11-11-10----8--11-11-10----8---
G-----------10-----------10-------------10-----
D----------------------------------------------
A----------------------------------------------
E----------------------------------------------

     
Добавлено: 11.07.2013
Вам также может быть интересно:
Другие материалы по этой песне:
  • Аккорды и текст

Страница создана 11.07.2013
http://primanota.ru/stadio/acqua-e-sapone-chords.htm
Привет, Гость.
Предлагаем пройти революционный курс по гитаре.
Подарок от PrimaNota.Ru, забирай!