PrimaNota.ru - самый крупный в мире бесплатный архив песенных текстов, аккордов, табулатур и нот


Stacy Lattisaw - Jump To The Beat - бас-таба, видео

Регистрация Запомнить меня
Войти через:  Facebook Google Twitter Vk Yandex Mail.ru

Stacy Lattisaw - Jump To The Beat - бас-таба, видео

Печатать
Просмотров: 106
---------------------------------------------------|
---STACY LATTISAW: Jump to the Beat (7" Version)---|
---------------------------------------------------|

Tabbed by: BassMasterSlovakia
Youtube-channel: www.youtube.com/BassMasterSlovakia

Tuning: standard (EADG)


Chorus 1st riff:
G|-----------|--------------|----------|------------3---4---|
D|-----------|--------------|------1-3-|----1-3-------------|
A|--3--3-1-3-|-1-3-11-----3-|----------|--------0-1---2-----|
E|-----------|--------4-3---|-1-x1-----|-x1-----------------|
                                                s s p s p

Chorus 2nd riff:
G|-----------|--------------|----------|---------5---3---4--|
D|-----------|--------------|------1-3-|----3---------------|
A|--3--3-1-3-|-1-3-11-----3-|----------|-------3---1---2----|
E|-----------|--------4-3---|-1-x1-----|-x1-----------------|
                                          s p  s p s p s p

Chorus 3rd riff:
G|-----------|--------------|----------|--------------|
D|-----------|--------------|------1-3-|----1-3-5-6---|
A|--3--3-1-3-|-1-3-11-----3-|----------|------------3-|
E|-----------|--------4-3---|-1-x1-----|-x1-----------|

Verse 1st riff:
G|-----------|--------------|----------|--------------|
D|-------1-3-|--------------|----------|--------------|
A|-----------|--------------|----------|-----x1-2-3---|
E|--1-x1-----|-----x1-3-4-3-|-6x6-4-6--|------------3-|

Verse 2nd riff:
G|-----------|--------------|----------|-1h3----------|
D|-------1-3-|--------------|----------|--------------|
A|-----------|--------------|----------|-----x1-2-3---|
E|--1-x1-----|-----x1-3-4-3-|-6x6-4-6--|------------3-|
                                         p

Verse 3rd riff:
G|-----------|--------------|----------|--------------|
D|-------1-3-|--------------|----------|--------------|
A|-----------|--------------|----------|-----x1-2-3---|
E|--1-x1-----|-----x1-3-4-3-|-6x6-4-6--|------------3-|

Verse 4th riff:
G|-----------|--------------|----------|--------------|
D|-------1-3-|--------------|----------|---8-6-5---5--|
A|-----------|--------------|----------|---------5----|
E|--1-x1-----|-----x1-3-4-3-|-6x6-4-6--|--------------|

Verse 5th riff (after solo bass playing):
G|-----------|--------------|----------------------|--------55--33--44-|
D|-----------|--------------|---33---33---33---33--|---33--------------|
A|--3--3-1-3-|-1-3-11-----3-|----------------------|------3---1---2----|
E|-----------|--------4-3---|-1----1----1----1-----|-1-----------------|


---------------
Song structure:
---------------
Chorus 1st riff, Chorus 2nd riff, Chorus 3rd riff, Verse 1st riff, Verse 2nd riff, Verse 
3rd riff, Verse 4th riff, Chorus 1st riff, Chorus 2nd riff,
2 x Chorus 3rd riff, Verse 1st riff, Verse 2nd riff, Verse 3rd riff, Verse 4th riff, 
Chorus 1st riff, Chorus 2nd riff, 2 x Chorus 3rd riff
-then bass guitar solo:
Chorus 2nd riff, Chorus 3rd riff, Chorus 2nd riff
-then:
Verse 5th riff, Choruses until the fade-out

-----------
Sign infos:
-----------
/  slide up
\  slide down
h  hammer-on
p  pull-off
~  vibrato
+  harmonic
x  Mute note
s  slap
p  pop


http://www.discogs.com/artist/Stacy+Lattisaw
Добавлено: 11.09.2013
Вам также может быть интересно:
Другие материалы по этой песне:
  • Аккорды и текст

Страница создана 11.09.2013
http://primanota.ru/stacy-lattisaw/jump-to-the-beat-chords.htm
Привет, Гость.
Предлагаем пройти революционный курс по гитаре.
Подарок от PrimaNota.Ru, забирай!