PrimaNota.ru - самый крупный в мире бесплатный архив песенных текстов, аккордов, табулатур и нот


St Vincent - Paris Is Burning - текст песни, таба, видео

Регистрация Запомнить меня
Войти через:  Facebook Google Twitter Vk Yandex Mail.ru

St Vincent - Paris Is Burning - текст песни, таба, видео

Печатать
Просмотров: 250
http://ilovestvincent.com/

[Strings Intro]

Verse: 0:05 - 0:41
Gtr. 1
E |-------------0------------------0------------------0-------------------------------------------|
B |---------11---11---------11----11---------11--------------9-----9---------9---9---------9------|
G |------9-----------9-----9------------9----9----------------8----8----8----8---8---8----8----8--|
D |--11----------------11----------------11----------------9---------------9--------------9-------|
A |-----------------------------------------------------------------------------------------------|
E |-----------------------------------------------------------------------------------------------|

        x3
E |-----------------------------------------------------------------------------0-------|
B |---------8----8--------8----8---------8-----------------7---7--------7---7--------7--|
G |------6----6---6----6---6----6----6---6------------6---6---6---6--------6---6---6----|
D |--8----------------8--------------8-----------------7-------------7------------7-----|
A |-------------------------------------------------------------------------------------|
E |-------------------------------------------------------------------------------------|

Pre-Chorus: 0:41 - 1:07
Gtr 1 + 3 (slightly de-tuned)
E |----------------------------------------------------------|
B |--------11--11-10-10-11-11------11-11-----11-11-----------|
G |---------x---x----x---x--x---x--------x----x-------x---x--|     x3
D |--x-x---9---9---8---8--9---9--x-x--9---9-x-x--9---9-------|
A |--x-x------------------------------x-x---------x-x--------|
E |--x-x------------------------------x-x---------x-x--------|

1.
E |----------------------------------------------------------|
B |--------10--10--9---9-10-10------10-10-----10-10----------|
G |---------x---x----x---x--x---x--------x----x-------x---x--|
D |--x-x---8---8---7---7--8---8--x-x--8---8-x-x--8---8-------|
A |--x-x------------------------------x-x---------x-x--------|
E |--x-x------------------------------x-x---------x-x--------|

2.
E |------------------------------------------------------------------------------------------------------|
B |--------10--10--9---9-10-10------10-10-----10-10-------10-10-----10-10----10-11-13-15-----------------|
G |---------x---x----x---x--x---x--------x----x-------x---x--------x----x-------x---x-----x---x---x---x--|
D |--x-x---8---8---7---7--8---8--x-x--8---8-x-x--8---8--x-x--8---8-x-x--8---8-----8--9--11-13------------|
A |--x-x------------------------------x-x---------x-x-----------x-x---------x-x--------------------------|
E |--x-x------------------------------x-x---------x-x-----------x-x---------x-x--------------------------|


Gtr. 2

E |----------------------------------------------------------------------------------------|
B |----------------------------------------------------------------------------------------|
G |----------------------------------------------------------------------------------------|
D |--x-x--9-----x-x-9------x-x--9-----x-x-9-------x-x--9------x-x-9------x-x--9-----x-x-9--|
A |----------11--------11----------11--------11--------------------------------------------|
E |--------------------------------------------------------------10 ---------10------------|
--------10---------------------------------------------------------------------------------|

                x2
E |------------------------------------------------------------------------------------------------|
B |------------------------------------------------------------------------------------------------|
G |------------------------------------------------------------------------------------------------|
D |--x-x--9-----x-x-9------x-x--9-----x-x-9-------x-x--8------x-x-8------x-x--8-----x-x-8----------|
A |----------10---------10----------10--------10-----------9------------9------------9----------9--|
E |------------------------------------------------------------------------------------------------|

E |------------------------|
B |------------------------|
G |------------------------|
D |-----------8--9--11-13--|
A |------------------------|
E |------------------------|

Chorus: 1:07 - 1:32

Gtr. 1
E |------------------------------------------------------------------------------|
B |------------------------------------------------------------------------------|
G |----------------11------------------------------------------------------------|     x3
D |---13-11-13-----13-11-13-11--- -----------------------------------------------|
A |---------------------------------------14-13-x-x--14-13-x-x--14-13-x-x-14-11--|
E |------------------------------------------------------------------------------|

E |------------------------------------------------------------------------------|
B |------------------------------------------------------------------------------|
G |----------------11------------------------------------------------------------|
D |---13-11-13-----13-11-13-11--- -----------------------------------------------|
A |---------------------------------------14-13-x-x--14-13-x-x--14-13-x-x-14-16--|
E |------------------------------------------------------------------------------|
Gtr. 2
E |------------------------------------------------------------------------------|
B |------------------------------------------------------------------------------|
G |------------------------------------------------------------------------------|
D |-------------------------------------------- ---------------------------------|      x3
A |---14-13-14-16-14-13-14-13----------------------------------------------------|
E |---------------------------------------16-15---x-x-16-15-x-x-16-15-x-x-16-16--|

E |--------------------------------------------------------------------------------|
B |--------------------------------------------------------------------------------|
G |--------------------------------------------------------------------------------|
D |-------------------------------------------- -----------------------------------|
A |---14-13-14-16-14-13-14-13--------------------------------------------------16--|
E |---------------------------------------16-15---x-x-16-15-x-x-16-15-x-x-16-------|

Bridge/Solo: 1:32 - 1:44

E |-24-23-21-/24-23-21-23-21-19-/23-21-19-21-19-18-/21-19-18-17-17-19--23p21------------------------------------------|
B |------------------------------------------------------------------------------------------------------------22-21--|
G |-------------------------------------------------------------------------------------------------------------------|
D |-------------------------------------------- ----------------------------------------------------------------------|
A |-------------------------------------------------------------------------------------------------------------------|
E |-------------------------------------------------------------------------------------------------------------------|

Verse 2: 1:44 - 2:08
(Pluck the two notes at the same time with your fingers)
E |--------------------------------------------------------------|
B |--11-11-11-11-11-11-11-11-12-12-12-12-12-12-12-12-------------|
G |--9---9--9---9---9---9---9---9---8--8---8---8---8---8--8---8--|
D |--------------------------------------------------------------|
A |--------------------------------------------------------------|
E |--------------------------------------------------------------|

      x2
E |---------------------------------------------------|
B |--14-14-14-14-14-14-14-14-16-16-16-16-17-17-16-16--|
G |--12-12-12-12-12-12-12-12-14-14-14-14-14-14-14-14--|
D |---------------------------------------------------|
A |---------------------------------------------------|
E |---------------------------------------------------|

Pre-Chorus: 2:08 - 2:35
Gtr 1 + 3 (slightly de-tuned)
E |----------------------------------------------------------|
B |--------11--11-10-10-11-11------11-11-----11-11-----------|
G |---------x---x----x---x--x---x--------x----x-------x---x--|     x3
D |--x-x---9---9---8---8--9---9--x-x--9---9-x-x--9---9-------|
A |--x-x------------------------------x-x---------x-x--------|
E |--x-x------------------------------x-x---------x-x--------|

1.
E |----------------------------------------------------------|
B |--------10--10--9---9-10-10------10-10-----10-10----------|
G |---------x---x----x---x--x---x--------x----x-------x---x--|
D |--x-x---8---8---7---7--8---8--x-x--8---8-x-x--8---8-------|
A |--x-x------------------------------x-x---------x-x--------|
E |--x-x------------------------------x-x---------x-x--------|

2.
E |------------------------------------------------------------------------------------------------------|
B |--------10--10--9---9-10-10------10-10-----10-10-------10-10-----10-10----10-11-13-15-----------------|
G |---------x---x----x---x--x---x--------x----x-------x---x--------x----x-------x---x-----x---x---x---x--|
D |--x-x---8---8---7---7--8---8--x-x--8---8-x-x--8---8--x-x--8---8-x-x--8---8-----8--9--11-13------------|
A |--x-x------------------------------x-x---------x-x-----------x-x---------x-x--------------------------|
E |--x-x------------------------------x-x---------x-x-----------x-x---------x-x--------------------------|


Gtr. 2

E |----------------------------------------------------------------------------------------|
B |----------------------------------------------------------------------------------------|
G |----------------------------------------------------------------------------------------|
D |--x-x--9-----x-x-9------x-x--9-----x-x-9-------x-x--9------x-x-9------x-x--9-----x-x-9--|
A |----------11--------11----------11--------11--------------------------------------------|
E |--------------------------------------------------------------10 ---------10------------|
--------10---------------------------------------------------------------------------------|

                x2
E |------------------------------------------------------------------------------------------------|
B |------------------------------------------------------------------------------------------------|
G |------------------------------------------------------------------------------------------------|
D |--x-x--9-----x-x-9------x-x--9-----x-x-9-------x-x--8------x-x-8------x-x--8-----x-x-8----------|
A |----------10---------10----------10--------10-----------9------------9------------9----------9--|
E |------------------------------------------------------------------------------------------------|

E |------------------------|
B |------------------------|
G |------------------------|
D |-----------8--9--11-13--|
A |------------------------|
E |------------------------|


Chorus: 2:35 - 2:58

Gtr. 1
E |------------------------------------------------------------------------------|
B |------------------------------------------------------------------------------|
G |----------------11------------------------------------------------------------|     x3
D |---13-11-13-----13-11-13-11--- -----------------------------------------------|
A |---------------------------------------14-13-x-x--14-13-x-x--14-13-x-x-14-11--|
E |------------------------------------------------------------------------------|

E |------------------------------------------------------------------------------|
B |------------------------------------------------------------------------------|
G |----------------11------------------------------------------------------------|
D |---13-11-13-----13-11-13-11--- -----------------------------------------------|
A |---------------------------------------14-13-x-x--14-13-x-x--14-13-x-x-14-16--|
E |------------------------------------------------------------------------------|
Gtr. 2
E |------------------------------------------------------------------------------|
B |------------------------------------------------------------------------------|
G |------------------------------------------------------------------------------|
D |-------------------------------------------- ---------------------------------|      x3
A |---14-13-14-16-14-13-14-13----------------------------------------------------|
E |---------------------------------------16-15---x-x-16-15-x-x-16-15-x-x-16-16--|

E |--------------------------------------------------------------------------------|
B |--------------------------------------------------------------------------------|
G |--------------------------------------------------------------------------------|
D |-------------------------------------------- -----------------------------------|
A |---14-13-14-16-14-13-14-13--------------------------------------------------16--|
E |---------------------------------------16-15---x-x-16-15-x-x-16-15-x-x-16-------|

Solo: 3:07 - 3:16

E |----------------------------------------------------------------------------------4-/7-6-4--|
B |--9----------8--------7--------6-------5------4-----4---------------------4-----------------|
G |--11b13--10b12--9b11--8b10--7b9--6b8--6b8r6--4---------4----------------4-6-6b7-8\----------|
D |---------------------------------------------------------------------6-4-6------------------|
A |--------------------------------------------------------------------------------------------|
E |--------------------------------------------------------------------------------------------|
Добавлено: 23.04.2012
Другие материалы по этой песне:

Страница создана 23.04.2012
http://primanota.ru/st-vincent/paris-is-burning-chords.htm
Привет, Гость.
Предлагаем пройти революционный курс по гитаре.
Подарок от PrimaNota.Ru, забирай!