PrimaNota.ru - самый крупный в мире бесплатный архив песенных текстов, аккордов, табулатур и нот


St Vincent - Land Mines - текст песни, таба, видео

Регистрация Запомнить меня
Войти через:  Facebook Google Twitter Vk Yandex Mail.ru

St Vincent - Land Mines - текст песни, таба, видео

Печатать
Просмотров: 101
Уроки эстрадного вокала в Санкт-Петербурге
-------------------------------------------------------------------------------
                             Landmines - St. Vincent
-------------------------------------------------------------------------------

Tuning: EADGBe

Tabbed this by watching this live performance of Landmines, she plays it pretty loosely
and so should you!
http://www.youtube.com/watch?v=RivD4ZjRjx4


==INTRO/CHORUS==

In this intro part, Annie bends the harmonic note by pressing down the string behind the nut
e|--------12+---------------------|
B|----12+--------------12+--------|
G|--------------------------------| x2
D|--------------------------------|
A|-----------------0--------------|
E|-0------------------------------|


==VERSE==
(^= optional use of tremolo arm)
"Im crawling through landmines" "Just to know where you are"
e|---------4-----------4^-------------3---------------------------- |   ______
B|---------5-----------5^-------------1-----------------|        -- |
G|---------4-----------4^-------------2-----------------|        -- |
D|------------------------------------------------------|        -- |
A|------------------------------0-----------------------|        -- |
E|---0-----------0--------------------------------------|        -- |
                                                                  |
"There's smoke in my eyes" "Cause you're burning the ground"      | Play this twice
e|--------0---------x-----------------5----------5----x---|       |
B|---------7--------7-----------------8----------7----7---|       |
G|----------8-------8---------------5----------5------5---|       |
D|-----------6------6-------------7----------7--------7---|       |
A|------------7-----7-----------5----------5----------5---|       |
E|---0---------0----x-------------------------------------| ______|


==PRE-CHORUS==
      "Where'd you go" "Not so fast!"
e|------------8-------------7-----------------|
B|----------8---8---------7---7---------------|
G|--------9-------9-----9------9--------------|  Play this like 16 times or something!
D|--------------------------------------------|
A|--------------------------------------------|
E|-----11------------11-----------------------|


==SOLO/INTRO==
Changed intro/solo part
e|----------0-----------0--------------------------------------------------0-|
B|----------0-----------0-----2-3-2--------14-15----------9------------------|
G|-----8b--------6s4s1-(1)----1-2-1--------13-14 -----11b-----11p9p8---------|
D|---------------7------------2-3-2--------14-15-----------------------9-----|
A|---------------------------------------------------------------------------|
E|-0-----------------------------------0----------(0)------------------------|

        solo part cont.
e|------------------------------------------|
B|-------14-15-14-15-14-15-14-15-14-15-14---|
G|-------13-14-13-14-13-14-13-14-13-14-13---|
D|-------14-15-14-15-14-15-14-15-14-15-14---|
A|------------------------------------------|
E|---0--------------------------------------|


==BRIDGE==
"I found your ring"
e|---------------------7---7---5---5---5---5/-----3----3----3------|
B|-----9---9---8---8---7---7---7---7---5---5/-----5----5----5/-----|
G|-----9---9---9---9---7---7---6---6---4---4/-----4----4----4/-----|
D|-----9---9---7---7---6---6---5---5---4---4/-----5----5----5/-----|
A|---0--------------------------------------------3----3----3/-----|
E|-----------------------------------------------------------------|


Then it starts over again!

                   ______
Intro x2                 |
Verse x2                 |
Pre-chorus x1            | x2
Solo/intro x1            |
Bridge x1          ______|

Outro x1 "My love, my dear"
(The outro is just the intro with just the open E-string ringing out and plucking the 
bottom e-string)


************************************

| /   slide up
| \   slide down
| h   hammer-on
| p   pull-off
| ~   vibrato
| +   harmonic
| x   Mute note
| b   Bend
| pb  Pre-bend
| br  Bend release
| pbr Pre-bend release
| brb Bend release bend

************************************
Добавлено: 04.03.2014
Другие материалы по этой песне:
  • Аккорды и текст

Страница создана 08.08.2013
http://primanota.ru/st-vincent/land-mines-chords.htm
Привет, Гость.
Предлагаем пройти революционный курс по гитаре.
Подарок от PrimaNota.Ru, забирай!