PrimaNota.ru - самый крупный в мире бесплатный архив песенных текстов, аккордов, табулатур и нот


St Vincent - Hysterical Strength - таба, видео

Регистрация Запомнить меня
Войти через:  Facebook Google Twitter Vk Yandex Mail.ru

St Vincent - Hysterical Strength - таба, видео

Печатать
Просмотров: 56
-------------------------------------------------------------------------------
                             HYSTERICAL STRENGTH - St. Vincent
-------------------------------------------------------------------------------

Tuning: Standard

I think I may be missing some parts, but I couldn't figure those out.

This is the first part of the song:

Main Riff
e|-----------------------------------------------|
B|-----------------------------------------------|
G|-----------------------------------------------|
D|-5-5-7-5-------------5-5-7-5-------------------|
A|---------8-7-5-5-7~~---------8-7-5-5-5h7p5-----|
E|-------------------------------------------8-7-|

This is the same as above with a few more notes played
e|-----------------------------------------------|
B|-----------------------------------------------|
G|-----------------------------------------------|
D|-5-5-7-5-------------555-7-5-------------------|
A|---------8-7-5-5-7~~---------8-7-5-555-7-5-----|
E|-------------------------------------------8-7-|

e|-----------------------------------------------|
B|-----------------------------------------------|
G|-----------------------------------------------|
D|-----------------------------------------------|
A|-----------------------------------------------|
E|-8-7-6-1-6-12-10-12-6-6------------------------|

Then at 0:57 I don't know if this is a guitar or something else:

e|-8-7-6-6---------------------------------------|
B|---------8-8-------------8-8-------------------|
G|-------------9-9-------------------------------|
D|-----------------10-10-8-----------------------|
A|-----------------------------------------------|
E|-----------------------------------------------|


Towards the end the first riff Is played a couple of times and then this:

e|----------------------------|
B|-8-8-10-8-------------------|
G|----------10-9-7-9pbr-------|
D|----------------------------|x2
A|----------------------------|
E|----------------------------|

e|----------------------------|
B|-8-8-10-8-------------------|
G|----------10-9-7-7-9-7------|
D|-----------------------10-9-|
A|----------------------------|
E|----------------------------|




************************************

| /   slide up
| \   slide down
| h   hammer-on
| p   pull-off
| ~   vibrato
| +   harmonic
| x   Mute note
| b   Bend
| pb  Pre-bend
| br  Bend release
| pbr Pre-bend release
| brb Bend release bend

************************************
Добавлено: 09.11.2015
Другие материалы по этой песне:
  • Аккорды и текст

Страница создана 09.11.2015
http://primanota.ru/st-vincent/hysterical-strength-chords.htm
Привет, Гость.
Предлагаем пройти революционный курс по гитаре.
Подарок от PrimaNota.Ru, забирай!