PrimaNota.ru - самый крупный в мире бесплатный архив песенных текстов, аккордов, табулатур и нот


Ss-kaliert - Fuck Off And Die - аккорды и текст, таба, видео

Регистрация Запомнить меня
Войти через:  Facebook Google Twitter Vk Yandex Mail.ru

Ss-kaliert - Fuck Off And Die - аккорды и текст, таба, видео

Печатать
Просмотров: 158
Fuck Off And Die
Ss-kaliert
INTRO
E-----------------------------|
B-----------------------------|
G-----------------------------|
D-----------------------------|x2
A-7-10-12-10-12-10------------|
E-5-8--10-8--10-8-------------|

VERSE
E-----------------------------|             we are fucking rockstars
B-----------------------------|
G-----------------------------|
D-------------10-10-----------|X10
A-7-7--7-7-7--8--8---5-5-5-5--|
E-5-5--5-5-5---------3-3-3-3--|

OUTRO
E-----------------------------|
B-----------------------------|
G-----------------------------|
D-----------------------------|x2
A-7-10-12-10-12-10------------|
E-5-8--10-8--10-8-------------|

CHORUS
E-----------------------------|
B-----------------------------|
G-----------------------------|             fuck off,and die
D--------101010--9999---------|X3
A-77777--8-8-8---7777---------|
E-55555-----------------------|

OUTRO/TO CHORUS
E---------------------------------|
B---------------------------------|
G---------------------------------|
D--1010101010--9999999------------|
A--8-8-8-8-8---7777777-777--------|play after end of chorus
E----------------------555--------|

VERSE
E-----------------------------|
B-----------------------------|
G-----------------------------|
D-------------10-10-----------|X10
A-7-7--7-7-7--8--8---5-5-5-5--|
E-5-5--5-5-5---------3-3-3-3--|

OUTRO
E-----------------------------|
B-----------------------------|
G-----------------------------|
D-----------------------------|x2
A-7-10-12-10-12-10------------|
E-5-8--10-8--10-8-------------|

CHORUS
E-----------------------------|
B-----------------------------|
G-----------------------------|
D--------101010--9999---------|X3
A-77777--8-8-8---7777---------|
E-55555-----------------------|

OUTRO/TO CHORUS
E-----------------------------|
B-----------------------------|
G-----------------------------|
D--1010101010--9999999--------|
A--8-8-8-8-8---7777777-777----|}play after end of chorus
E----------------------555----|

BRIDGE
E--------------------------------------------------------|
B--------------------------------------------------------|
G--------------------------------------------------------|
D---------------10101010101010---------------------------|x6
A-7-PM-7777777--8-8-8-8-8-8-8---5555555----7-5-7-5-7-----|
E-5-PM-5555555------------------3333333----5-3-5-3-5-----|

CHORUS
E-----------------------------|
B-----------------------------|
G-----------------------------|
D--------101010--9999---------|X3
A-77777--8-8-8---7777---------|
E-55555-----------------------|

OUTRO/TO CHORUS
E-----------------------------|
B-----------------------------|
G-----------------------------|
D--1010101010--9999999--------|
A--8-8-8-8-8---7777777-777----|}play after end of chorus
E----------------------555----|


i dont know the fucking solo part its not that hard to learn im just to lazy but im sure 
pretty easy to learn by ear!so there u go!hit me up if anything is wrong!!!!

heres the site!http://ss-kaliert.de/englisch/
Добавлено: 03.05.2012
Другие материалы по этой песне:
  • Аккорды и текст

Страница создана 03.05.2012
http://primanota.ru/ss-kaliert/fuck-off-and-die-chords.htm
Привет, Гость.
Предлагаем пройти революционный курс по гитаре.
Подарок от PrimaNota.Ru, забирай!