PrimaNota.ru - самый крупный в мире бесплатный архив песенных текстов, аккордов, табулатур и нот


Sreeram And Shilpa Rao - Subhanallah - таба, видео

Регистрация Запомнить меня
Войти через:  Facebook Google Twitter Vk Yandex Mail.ru

Sreeram And Shilpa Rao - Subhanallah - таба, видео

Печатать
Просмотров: 39
Уроки эстрадного вокала в Санкт-Петербурге
-------------------------------------------------------------------------------
                             SUBHANALLAH Intro
-------------------------------------------------------------------------------

This is a great song and these tabs were figured out by someone else on YouTube,
please check out his great tutorial: https://www.youtube.com/watch?v=PeL8dqHj0L0
Tabs by Sagar Roy.

Tuning:

e|--------5--------7p5-----x-----9----------5h7------------------------------|
B|--------5--------5-------x-----7----------5--------------------------------|
G|-------------------------x-------------------------------------------------|
D|--6h7-------7------------x---------7---------------------------------------|
A|-------------------------x-------------------------------------------------|
E|-------------------------x-------------------------------------------------|

e|---------------7---------x----7----7---------------------------------------|
B|--------5----------5-----x----5----5---------------------------------------|
G|-------------------------x-------------------------------------------------|
D|--6h7------6-------------x----6----6---------------------------------------|
A|-------------------------x-------------------------------------------------|
E|-------------------------x-------------------------------------------------|

e|---------------------------------------------------------------------------|
B|----------0------0----------------0------0---------------------------------|
G|---------------------------------------------------------------------------|
D|-----7--------7--------------7--------7------------------------------------|
A|--5---------------------7--------------------------------------------------|
E|---------------------------------------------------------------------------|


************************************

| /   slide up
| \   slide down
| h   hammer-on
| p   pull-off
| ~   vibrato
| +   harmonic
| x   Mute note
| b   Bend
| pb  Pre-bend
| br  Bend release
| pbr Pre-bend release
| brb Bend release bend

************************************
Добавлено: 01.01.2016
Другие материалы по этой песне:
  • Аккорды и текст

Страница создана 01.01.2016
http://primanota.ru/sreeram-and-shilpa-rao/subhanallah-chords.htm
Привет, Гость.
Предлагаем пройти революционный курс по гитаре.
Подарок от PrimaNota.Ru, забирай!