PrimaNota.ru - самый крупный в мире бесплатный архив песенных текстов, аккордов, табулатур и нот


Squirtgun - Another Sunny Afternoon - текст песни, таба, видео

Регистрация Запомнить меня
Войти через:  Facebook Google Twitter Vk Yandex Mail.ru

Squirtgun - Another Sunny Afternoon - текст песни, таба, видео

Печатать
Просмотров: 113
-- Artist: Squirtgun
-- Song: Another sunny afternoon
-- Tabbed by Fabio Berlusconi
-- Email: bjfabiobebe@virgilio.it
 
 Riff 1 - Intro
e|-------------------------------------------------------------------|
B|-------------------------------------------------------------------|
G|---7---5-4-4h5p4---7---5-4-4h5p4---7---5-4-4h5p4-----7-7-7-7-7-7-7-|
D|-5---5-----------5---5-----------5---5-----------5---7-7-7-7-7-7-7-|
A|-----------------------------------------------------5-5-5-5-5-5-5-|
E|-------------------------------------------------------------------|

 Riff 2 - Chorus
   G               C                G               C
e|-------------------------------------------------------------------|
B|-------------------------------------------------------------------|
G|-----------------5-5-5-5-5-5-5-5------------------5-5-5-5-5-5-5-5--|
D|-5-5-5-5-5-5-5-5-5-5-5-5-5-5-5-5--5-5-5-5-5-5-5-5-5-5-5-5-5-5-5-5--|
A|-5-5-5-5-5-5-5-5-3-3-3-3-3-3-3-3--5-5-5-5-5-5-5-5-3-3-3-3-3-3-3-3--|
E|-3-3-3-3-3-3-3-3------------------3-3-3-3-3-3-3-3------------------|
   G               C                G                 D
e|-------------------------------------------------------------------|
B|-------------------------------------------------------------------|
G|-----------------5-5-5-5-5-5-5-5--------------------7-7-7-7-7-7-7--|
D|-5-5-5-5-5-5-5-5-5-5-5-5-5-5-5-5--5-5-5-5-5-5-5-X---7-7-7-7-7-7-7--|
A|-5-5-5-5-5-5-5-5-3-3-3-3-3-3-3-3--5-5-5-5-5-5-5-X---5-5-5-5-5-5-5--|
E|-3-3-3-3-3-3-3-3------------------3-3-3-3-3-3-3-X------------------|
 
 Riff 3 - Verse
   Bm              E                Bm              Am
e|-2-2-x-2-2-2-2-2-0-0-x-0-0-0-0-0--2-2-x-2-2-2-2-2-5-5-x-5-5-5-5-5--|
B|-3-3-x-3-3-3-3-3-0-0-x-0-0-0-0-0--3-3-x-3-3-3-3-3-5-5-x-5-5-5-5-5--|
G|-4-4-X-4-4-4-4-4-1-1-x-1-1-1-1-1--4-4-X-4-4-4-4-4-5-5-x-5-5-5-5-5--|
D|-4-4-X-4-4-4-4-4-2-2-X-2-2-2-2-2--4-4-X-4-4-4-4-4-7-7-X-7-7-7-7-7--|
A|-2-2-X-2-2-2-2-2-2-2-X-2-2-2-2-2--2-2-X-2-2-2-2-2-7-7-X-7-7-7-7-7--|
E|-2-2-x-2-2-2-2-2-0-0-X-0-0-0-0-0--2-2-x-2-2-2-2-2-5-5-X-5-5-5-5-5--|
   Bm              E                C               D
e|-2-2-x-2-2-2-2-2-0-0-x-0-0-0-0-0-----------------------------------|
B|-3-3-x-3-3-3-3-3-0-0-x-0-0-0-0-0-----------------------------------|
G|-4-4-X-4-4-4-4-4-1-1-x-1-1-1-1-1--5-5-5-5-5-5-5-5-7-7-7-7-7-7-7-7--|
D|-4-4-X-4-4-4-4-4-2-2-X-2-2-2-2-2--5-5-5-5-5-5-5-5-7-7-7-7-7-7-7-7--|
A|-2-2-X-2-2-2-2-2-2-2-X-2-2-2-2-2--3-3-3-3-3-3-3-3-5-5-5-5-5-5-5-5--|
E|-2-2-x-2-2-2-2-2-0-0-X-0-0-0-0-0-----------------------------------|

 Riff 4 - Outro
   D               G
e|----------------------------------|
B|----------------------------------|
G|---7-7-7-7-7-7-7------------------|
D|---7-7-7-7-7-7-7-5-5-5-5-5-5-5-x--|
A|---5-5-5-5-5-5-5-5-5-5-5-5-5-5-x--|
E|-----------------3-3-3-3-3-3-3-x--| last time let ring on G

riff 1
riff 2 x2
riff 3 x2
riff 2 x2
riff 3 x2
riff 1
riff 2 x2
riff 4 x3
Добавлено: 07.11.2013
Другие материалы по этой песне:
  • Аккорды и текст

Страница создана 17.03.2012
http://primanota.ru/squirtgun/another-sunny-afternoon-chords.htm
Привет, Гость.
Предлагаем пройти революционный курс по гитаре.
Подарок от PrimaNota.Ru, забирай!