PrimaNota.ru - самый крупный в мире бесплатный архив песенных текстов, аккордов, табулатур и нот


Squid The Whale - Drown - таба, видео

Регистрация Запомнить меня
Войти через:  Facebook Google Twitter Vk Yandex Mail.ru

Squid The Whale - Drown - таба, видео

Печатать
Просмотров: 65
This is my first tab, it is how i think the song is played. Enjoy!


Drown(acoustic) - Squid the Whale


Tabbed by: Jay Wade
E-mail: jaywade85@yahoo.com

Tuning:1/2 step down 


INTRO


e|--------------------------------------------7----------------------------|
B|---------0--------------------------7p0----------------------------------|
G|----6-------6----------------0-----------0-------------------------------|
D|-------4-------4----------5-----5----------------------------------------|
A|-6----------------6--6/7-------------------------------------------------|
E|-------------------------------------------------------------------------|



e|--------------------------------------------0h7p0------------------------|
B|---------0--------------------------7p0----------------------------------|
G|----6-------6----------------0-----------0-------------------------------|
D|-------4-------4----------5-----5----------------------------------------|
A|-6----------------6--6/7-------------------------------------------------|
E|-------------------------------------------------------------------------|


e|--------------------------------------------7----------------------------|
B|---------0--------------------------7p0----------------------------------|
G|----6-------6----------------0-----------0-------------------------------|
D|-------4-------4----------5-----5----------------------------------------|
A|-6----------------6--6/7-------------------------------------------------|
E|-------------------------------------------------------------------------|


e|-------------------------------------------------------------------------|
B|----------0-----------0--------------------------------------------------|
G|----6--------6--------0--------------------------------------------------|
D|-------4--------4-----4--------------------------------------------------|
A|-6-----------------6--6--------------------------------------------------|
E|-------------------------------------------------------------------------|


PRE-CHORUS


e|------------------------------------0h3p0--------------------------------|
B|----------------------------0h3p0-----------0h3p0------------------------|
G|-------0-----------0-----0-----------------------------------------------|
D|----2-----2-----1-----2--------------------------------------------------|
A|-3-----------2-----------------------------------------------------------|
E|-------------------------------------------------------------------------|


e|-----------------------------------3/5--3--0h3p0-------------------------|
B|----------------------------0h3p0----------------------------------------|
G|-------0-----------0-----0-----------------------------------------------|
D|----2-----2-----1-----2--------------------------------------------------|
A|-3-----------2-----------------------------------------------------------|
E|-------------------------------------------------------------------------|


e|------------------------------------0h3p0--------------------------------|
B|----------------------------0h3p0-----------0h3p0------------------------|
G|-------0-----------0-----0-----------------------------------------------|
D|----2-----2-----1-----2--------------------------------------------------|
A|-3-----------2-----------------------------------------------------------|
E|-------------------------------------------------------------------------|


e|-------------------------------------------------------------------------|
B|----------------------0--0--4--4--4--------------------------------------|
G|-------0-----------0--0--0--4--4--4--------------------------------------|
D|----2-----2-----1-----1--1--1--1--1--------------------------------------|
A|-3-----------2--------2--2--2--2--2--------------------------------------|
E|-------------------------------------------------------------------------|


CHORUS


e|-0--0--0--x-x--x-x-x--x-x-x--0--0--0--x-x--x-x-x--x-x-x------------------|
B|-0--0--0--x-x--x-x-x--x-x-x--0--0--0--x-x--x-x-x--x-x-x------------------|
G|-0--0--0--x-x--x-x-x--x-x-x--0--0--0--x-x--x-x-x--x-x-x------------------|
D|-5--5--5--x-x--x-x-x--x-x-x--5--5--5--x-x--x-x-x--x-x-x------------------|
A|-7--7--7--x-x--x-x-x--x-x-x--6--6--6--x-x--x-x-x--x-x-x------------------|
E|-------------------------------------------------------------------------|


e|-0--0--0---------------0--0--0-------5p3---------------------------------|
B|-0--0--0--3/5--3p0-----0--0--0--3/5-------5------------------------------|
G|-0--0--0------------0--0--0--0-------------------------------------------|
D|-2--2--2---------------2--2--2-------------------------------------------|
A|-3--3--3---------------3--3--3-------------------------------------------|
E|-------------------------------------------------------------------------|


e|-0--0--0---------------0-------3h5--5/9--7-------------------------------|
B|-0--0--0--3/5--3p0-----0--3/5--------------------------------------------|
G|-0--0--0------------0--0-------------------------------------------------|
D|-2--2--2---------------2-------------------------------------------------|
A|-3--3--3---------------3-------------------------------------------------|
E|-------------------------------------------------------------------------|


BRIDGE


e|-0------0------0-----0------0------x-----------x-------------------------|
B|-0------0------1-----3------0------4-----------4-------------------------|
G|-0 x8 --0 x8 --2 x4 -0 x4 --0 x4 --4 x6(1/16)--4 x2 ---------------------|
D|-5------5------2-----2------1------1-----------1-------------------------|
A|-7------6------0-----3------2------2-----------2-------------------------|
E|-------------------------------------------------------------------------|


END CHORD


e|-x------|
B|-7------|
G|-0------|
D|-5------|
A|-7------|
E|--------|

SONG ORDER:

INTRO x2
PRE-CHORUS x1
CHORUS x2
BRIDGE x1
PRE-CHORUS x1
CHORUS x2
END CHORD x1

************************************

| /   slide up
| \   slide down
| h   hammer-on
| p   pull-off
| ~   vibrato
| +   harmonic
| x   Mute note
| b   Bend
| pb  Pre-bend
| br  Bend release
| pbr Pre-bend release
| brb Bend release bend

************************************

Link to band website  http://squidthewhale.com/
Добавлено: 28.09.2013
Вам также может быть интересно:
Другие материалы по этой песне:
  • Аккорды и текст

Страница создана 28.09.2013
http://primanota.ru/squid-the-whale/drown-chords.htm
Привет, Гость.
Предлагаем пройти революционный курс по гитаре.
Подарок от PrimaNota.Ru, забирай!