PrimaNota.ru - самый крупный в мире бесплатный архив песенных текстов, аккордов, табулатур и нот


Squad - Kerbal Space Program Theme 1 - таба, видео

Регистрация Запомнить меня
Войти через:  Facebook Google Twitter Vk Yandex Mail.ru

Squad - Kerbal Space Program Theme 1 - таба, видео

Печатать
Просмотров: 51
This is how to play the Kerbal Space Program Title Theme 1. This is my first tab so my 
apologies if something is off.

Main Theme: 2x - second time do not play last note
e|-----------------------------------------------------------------------------|
B|-----------------------11---10----------------11---10------------------------|
G|-9--------12------9-12-----------12------9-12-----------12-------------(10)--|
D|-----10--------10---------------------10---------------------10---12---------|
A|-----------------------------------------------------------------------------|
D|-----------------------------------------------------------------------------|

Violins
e|---------------------------------------|
B|---------------------------------------|
G|---------9----------------10-----------|
D|-10----------10---12-----------12------|
A|---------------------------------------|
D|---------------------------------------|

Trumpets
e|---------------------|
B|---------------------|
G|-9------10--9--------|
D|---------------12----|
A|---------------------|
D|---------------------|

Repeat Main Theme x2


Trumpets
e|--------------------------------------|
B|-12---12-12-12-12---12-12-12-12---12--|
G|--------------------------------------|
D|--------------------------------------|
A|--------------------------------------|
D|--------------------------------------|
Добавлено: 23.12.2015
Другие материалы по этой песне:
  • Аккорды и текст

Страница создана 23.12.2015
http://primanota.ru/squad/kerbal-space-program-theme-1-chords.htm
Привет, Гость.
Предлагаем пройти революционный курс по гитаре.
Подарок от PrimaNota.Ru, забирай!