PrimaNota.ru - самый крупный в мире бесплатный архив песенных текстов, аккордов, табулатур и нот


Spyro Gyra - Funkyard Dog - таба, видео

Регистрация Запомнить меня
Войти через:  Facebook Google Twitter Vk Yandex Mail.ru

Spyro Gyra - Funkyard Dog - таба, видео

Печатать
Просмотров: 187
Уроки эстрадного вокала в Санкт-Петербурге
Funkyard Dog by Spyrogyra from "Good to Go-Go"
Transcription by Jason Bold, madisonjazzman@gmail.com

Slide part (x2)
E-------------------------|--------------------------------------------|
B--11->12---11->12-11->12-|--------------------------------------------|
G--10->11---10->11-10->11-|--7-9-9-10-11\---9-11-------7->9------11----|
D-------------------------|----------------------11-11------9-11----11-|
A-------------------------|--------------------------------------------|
E-------------------------|--------------------------------------------|

E----------------------------------------------------------------------|
B--------------------------/12-------------------12--------------------|
G---------12/--------12-14-----------12-13-14-15----12-12-9------------|
D---12-14-----12->14-----------12-14-----------------------------------|
A----------------------------------------------------------------------|
E----------------------------------------------------------------------|

E---------------10-12----10-----|--------------------------------------|
B------------10-------13----12--|----------8-10--8-8-10/\-8-11----12\--|
G-----7----9--------------------|-----7--9------------------------11\--|
D---5----7----------------------|-->5----------------------------------|
A-------------------------------|--------------------------------------|
E-------------------------------|--------------------------------------|
                                Variation on Intro (1 extra note)
E------12------|------------|------------------------------------------|
B--14/---------|------------|------------------------------------------|
G---------14/--|-----12~----|--7-9----9-10-11\--9-11-------------11----|
D--------------|--14----14--|------12----------------11-11--9-11----11-|
A--------------|------------|------------------------------------------|
E--------------|------------|------------------------------------------|
Some stuff is missing here--^
                                          Quick pick-up to next line
E------------------|--------------------|------------------------------|
B---10-12----------|--------------9-11--|--8-9-10-11-12----------------|
G---------11-9-7\--|----7----9--9-------|------------------------------|
D------------------|--5----7------------|------------------------------|
A------------------|--------------------|------------------------------|
E------------------|--------------------|------------------------------|

E--->12-10---------------------|------------5-7-------------10---------|
B----------12-10-8-------------|----------8-----8--10-8->12----12\-----|
G------------------9-----------|--------7------------------------------|
D-------------------->9-7------|------5--------------------------------|
A-------------------------10\--|--5-7----------------------------------|
E------------------------------|---------------------------------------|

E--12-10----------------10------|--------------------------------------|
B--------12-10-8-10->12----12\--|--12->10-8-10--8-10-8-----------------|
G-------------------------------|--------------------------------------|
D-------------------------------|--------------------------------------|
A-------------------------------|--------------------------------------|
E-------------------------------|--------------------------------------|

E--->12-10---------------------|----------------------|------8-11-12\--|
B----------12-10-8-------------|----------------------|----9-----------|
G------------------9-----------|-------------------7--|--8-------------|
D-------------------->9-7------|---------7----7->9----|----------------|
A-------------------------10\--|--7->10----10---------|----------------|
E------------------------------|----------------------|----------------|



Slight variance on 2 above
E--12-10------------------10------|-------15-12-------------------------------|
B--------12-10-8-10-8->12----12\--|-12-15--------12->10-8-10/--\10-8--10->8---|
G---------------------------------|-----------------------------------------9-|
D---------------------------------|-------------------------------------------|
A---------------------------------|-------------------------------------------|
E---------------------------------|-------------------------------------------|

(Here's where the change in direction occurs - about 2:08)
(sax solo until about 3:09)


Добавлено: 28.05.2015
Другие материалы по этой песне:
  • Аккорды и текст

Страница создана 28.05.2015
http://primanota.ru/spyro-gyra/funkyard-dog-chords.htm
Привет, Гость.
Предлагаем пройти революционный курс по гитаре.
Подарок от PrimaNota.Ru, забирай!