PrimaNota.ru - самый крупный в мире бесплатный архив песенных текстов, аккордов, табулатур и нот


Spyair - 0 Game - таба, видео

Регистрация Запомнить меня
Войти через:  Facebook Google Twitter Vk Yandex Mail.ru

Spyair - 0 Game - таба, видео

Печатать
Просмотров: 279
Уроки эстрадного вокала в Санкт-Петербурге
Artist: SPYAIR
Song: 0 GAME
Album: 0 GAME
tabbed by: Hommiesyco
e-mail: hommiesyco@gmail.com (NO SPAM!!!)

pm =palm-muted
~ =hold note
^ =vibrato
b =bend
r =release
p =pull off
h =hammer on

I couldn't find any tabs for this song so, I tabbed this one myself.

Bass Intro

Lead Guitar (0:18)
e|-----------------------------------------------------------------------------|
B|-----------------------------------------------------------------------------|
G|-----13\-------------------------------------------------------- ------------|
D|-----13\-----2----2-3----2--------3------------------------------------------|
A|-----------------------------------------------------------------------------|
E|----------------0--------------0---------------------------------------------|

e|------------------------------------------------------------------------------|
B|------------------------------------------------------------------------------|
G|------------------------------------------------------------------------------|
D|----2-------2-3-----2---------------------------------------------------------|
A|------------------------------------------------------------------------------|
E|--------0----------------0----------------------------------------------------|
(Repeats 4 times)

Lead Guitar (0:34)
e|---------------------------------------------------------------------------|
B|---------------------------------------------------------------------------|
G|---13\---------------------------------------------------------------------|
D|---13\---------------5~---7~-----------------------------------------------|  x2
A|---------2~-----5~---3~---5~-----------------------------------------------|
E|---------0~-----3~---------------------------------------------------------|

e|---------------------------------------------------------------------------------|
B|---------------------------------------------------------------------------------|
G|---------------------------------------------------------------------------------|
D|--2------2-3----2----------------------------------------------------------------|
A|---------------------------------------------------------------------------------|
E|-----0-----------------0---------------------------------------------------------|

Verse: Lead Guitar (Listen For Timing)
e|-------------------------------------------------------------------------------|
B|-------8--7--------------------------------------------------------------------|
G|--x-x--------7---9---x--7-------x--7--9----------------------------------------|
D|-------------------------------------------------------------------------------|  x7
A|-------------------------------------------------------------------------------|
E|-------------------------------------------------------------------------------|

    (1:04)
e|-----------------------------------------------------------------------------|
B|-----------------------------------------------------------------------------|
G|--14----12-----11-----7------------------------------------------------------|
D|-----------------------------------------------------------------------------|
A|--12----10-----9------5------------------------------------------------------|
E|-----------------------------------------------------------------------------|

e|-------------------------------------------------------------------------------|
B|-------8--7--------------------------------------------------------------------|
G|--x-x--------7---9---x--7-------x--7--9----------------------------------------|
D|-------------------------------------------------------------------------------|  x7
A|-------------------------------------------------------------------------------|
E|-------------------------------------------------------------------------------|

     Pre-Chorus
e|-------------------------------------------------------------------------------|
B|-------------------------------------------------------------------------------|
G|--7------7---------7---7-------------------------------------------------------|
D|--7------7---------7---7---------7\--------------------------------------------|
A|--5------5---------5---5---------5\--------------------------------------------|
E|-------------------------------------------------------------------------------|

    Chorus
e|-----------------------------------------------------------------------------|
B|-----------------------------------------------------------------------------|
G|-------------------5~-------7~-----------------------------------------------|
D|--2~------5~-------5~-------7~-----------------------------------------------|  x2
A|--2~------5~-------3~-------5~-----------------------------------------------|
E|--0~------3~-----------------------------------------------------------------|

  Pre-Verse (1:37)
e|-----------------------------------------------------------------------------|
B|-----------------------------------------------------------------------------|
G|---x--x--7---9-9-x-7-----x-7---7-9----9--------------------------------------|
D|-----------------------------------------------------------------------------|
A|-----------------------------------------------------------------------------|
E|-----------------------------------------------------------------------------|

e|-----------------------------------------------------------------------------|
B|-----------------------------------------------------------------------------|
G|---x-x-7-----9-9-x-7----x-7--------------------------------------------------|
D|-----------------------------------------------------------------------------|
A|-----------------------------------------------------------------------------|
E|-----------------------------------------------------------------------------|

////REPEAT  VERSE AND PRE-CHORUS \\\\\

  Before Breakdown (2:27)
e|---------------------------------------------------------------------------------|
B|---------------------------------------------------------------------------------|
G|---10------------10~-------------------------------------------------------------|
D|---10--x8--------10~-------------------------------------------------------------|
A|---8--------------8~-------------------------------------------------------------|
E|---------------------------------------------------------------------------------|

Breakdown (2:30)
e|--10~----10~------------------------10~-----10~------------------------------|
B|---------13~----12~------10~--------10~-----13~----12~-----15~---------------|
G|-----------------------------------------------------------------------------|
D|-----------------------------------------------------------------------------|
A|-----------------------------------------------------------------------------|
E|-----------------------------------------------------------------------------|

e|--10~---10~-------------------------10~----10~-------------------------------------|
B|--------13~-----12~-------10~-------10~----13~-----12~-------10~-------------------|
G|-----------------------------------------------------------------------------------|
D|-----------------------------------------------------------------------------------|
A|-----------------------------------------------------------------------------------|
E|-----------------------------------------------------------------------------------|

  Pause Then, Heavier Break-Down (3:01)
e|-----------------------------------------------------------------------------|
B|-----------------------------------------------------------------------------|
G|------------5~----------------7~---------------------------------------------|
D|---2~-------5~--------5~------7~---------------------------------------------|
A|---2~-------3~-x4-----5~------5~-x4------------------------------------------|
E|---0~-x4--------------3~-x4--------------------------------------------------|

e|-----------------------------------------------------------------------------|
B|-----------------------------------------------------------------------------|
G|------------5~----------------7~---------------------------------------------|
D|---2~-------5~--------5~------7~---------------------------------------------|
A|---2~-------3~-x4-----5~------5~-x7------------------------------------------|
E|---0~-x4--------------3~-x4--------------------------------------------------|

  Chorus
e|-----------------------------------------------------------------------------|
B|-----------------------------------------------------------------------------|
G|-------------------5~-------7~-----------------------------------------------|
D|--2~------5~-------5~-------7~-----------------------------------------------|  x2
A|--2~------5~-------3~-------5~-----------------------------------------------|
E|--0~------3~-----------------------------------------------------------------|

e|-----------------------------------------------------------------------------|
B|-----------------------------------------------------------------------------|
G|---------------7~------------------------------------------------------------|
D|-----7---7-----7~------------------------------------------------------------|
A|-----5---5-----5~------------------------------------------------------------|
E|-----------------------------------------------------------------------------|
       pm  Pm

e|-----------------------------------------------------------------------------|
B|-----------------------------------------------------------------------------|
G|-------------------5~-------7~-----------------------------------------------|
D|--2~------5~-------5~-------7~-----------------------------------------------|  x2
A|--2~------5~-------3~-------5~-----------------------------------------------|
E|--0~------3~-----------------------------------------------------------------|


e|------------------------------------------------------------------------------|
B|------------------------------------------------------------------------------|
G|---10------------10~----------------------------------------------------------|
D|---10--x8--------10~----------------------------------------------------------|
A|---8--------------8~----------------------------------------------------------|
E|------------------------------------------------------------------------------|

Well, thats it! I hope u enjoyed it... Please rate and comment!

If you want me to tab more SPYAIR, let me know.
Cheers.
Добавлено: 24.07.2013
Другие материалы по этой песне:
  • Аккорды и текст

Страница создана 24.07.2013
http://primanota.ru/spyair/0-game-chords.htm
Привет, Гость.
Предлагаем пройти революционный курс по гитаре.
Подарок от PrimaNota.Ru, забирай!