PrimaNota.ru - самый крупный в мире бесплатный архив песенных текстов, аккордов, табулатур и нот


Spunge - Lyrical Content - аккорды и текст, таба, видео

Регистрация Запомнить меня
Войти через:  Facebook Google Twitter Vk Yandex Mail.ru

Spunge - Lyrical Content - аккорды и текст, таба, видео

Печатать
Просмотров: 143
Lyrical Content
Spunge
Spunge - Lyrical Content
Tabbed By Ditch B-Well

Intro Part 1 (Lead Guitar):

E--------|
B--------|
G--2~----| (Let Ring)
D--0~----|
A--------|
E--------|

Intro Part 2 (Lead Guitar):

E--------------------------------------|
B--------------------------------------|
Gm02202202202202020-02202202202202020--|
D-00000000000000000-00000000000000000--|
A--------------------------------------|
E--------------------------------------|  x 3

Intro Part 1 (Rhythm Guitar):

Play after one of the above riff from lead guitar.

E-------|
B-------|
G-7~----| (Let Ring)
D-7~----|
A-5~----|
E-------|

Play again after another of the riffs from lead guitar, and then one       
last time half way through the last riff from the lead.

Intro Part 2 (Rhythm Guitar):

Play this right at the end of the intro, just before the verse begins.

E---------|
B---------|
G---------|
D--5-7----|
A--5-7----|
E--3-5----|

Verse (Lead Guitar):

Ska upstrokes with a clean sound.

E-2-X-2-X-3-X-3-X-2-X-2-X-5-X-5-X-2-X-2-X-3-X-3-X-2-X-2-X-3-X-5-|
B-3-X-3-X-3-X-3-X-3-X-3-X-5-X-5-X-3-X-3-X-3-X-3-X-3-X-3-X-3-X-5-|
G-2-X-2-X-4-X-4-X-2-X-2-X-6-X-6-X-2-X-2-X-4-X-4-X-2-X-2-X-4-X-6-|
D-0-X-0-X-5-X-5-X-0-X-0-X-7-X-7-X-0-X-0-X-5-X-5-X-0-X-0-X-5-X-7-|
A-X-X-X-X-X-X-X-X-X-X-X-X-X-X-X-X-X-X-X-X-X-X-X-X-X-X-X-X-X-X-X-|
E-X-X-X-X-X-X-X-X-X-X-X-X-X-X-X-X-X-X-X-X-X-X-X-X-X-X-X-X-X-X-X-| x 4

Verse (Rhythm Guitar):

E----------------------------|
B----------------------------|
G--7-----7-----7-----7-------|
D--7--5--7--7--7--5--7--5-7--|
A--5--5--5--7--5--5--5--5-7--|
E-----3-----5-----3-----3-5--| x 4

Chorus (Lead Guitar):

The chorus for lead guitar is the same as the verse. It is played twice.

Chorus (Rhythm Guitar):

E-------------------------------------------|
B-------------------------------------------|
G--7777------7777------7777------7777-------|
D--7777-5555-7777-7777-7777-5555-7777-5577--|
A--5555-5555-5555-7777-5555-5555-5555-5577--|
E-------3333------5555------3333------3355--| x 2

Verse Three (Lead Guitar):

There is no ska guitar in this verse, it is mostly bass. Play this about 
half way through the verse.

E-------------------|
B-------------------|
G--14---------------|
D-----14-12h14p12~--| (Let Ring)
A-------------------|
E-------------------|

Verse 3 (Rhythm Guitar):

This is the same as previous verses, but only joins in half way through. 
Play riff twice.

Outro (Lead Guitar):

E--2-X-2-X-2-X-2-X-2-X-2-X-2-X-2-X-2-X-2-X-2-X-2-X-2-X-2-X-3-X-3--|
B--3-X-3-X-3-X-3-X-3-X-3-X-3-X-3-X-3-X-3-X-3-X-3-X-3-X-3-X-3-X-3--|
G--2-X-2-X-2-X-2-X-2-X-2-X-2-X-2-X-2-X-2-X-2-X-2-X-2-X-2-X-4-X-4--|
D--0-X-0-X-0-X-0-X-0-X-0-X-0-X-0-X-0-X-0-X-0-X-0-X-0-X-0-X-5-X-5--|
A--X-X-X-X-X-X-X-X-X-X-X-X-X-X-X-X-X-X-X-X-X-X-X-X-X-X-X-X-X-X-X--|
E--X-X-X-X-X-X-X-X-X-X-X-X-X-X-X-X-X-X-X-X-X-X-X-X-X-X-X-X-X-X-X--| x 4

Outro (Rhythm Guitar):

Play 'Intro Part 2 (Lead Guitar)' while the lead guitar is playing the ska 
riff.

Both Guitars:

End song on chord of D

SONG ORDER:

Intro Part 1
Intro Part 2
Verse
Chorus
Verse
Chorus
Verse Three
Chorus
Verse
Outro
     
Добавлено: 08.08.2013
Другие материалы по этой песне:

Страница создана 26.03.2012
http://primanota.ru/spunge/lyrical-content-chords.htm
Привет, Гость.
Предлагаем пройти революционный курс по гитаре.
Подарок от PrimaNota.Ru, забирай!