PrimaNota.ru - самый крупный в мире бесплатный архив песенных текстов, аккордов, табулатур и нот


Spudgun - Too Late - таба, видео

Регистрация Запомнить меня
Войти через:  Facebook Google Twitter Vk Yandex Mail.ru

Spudgun - Too Late - таба, видео

Печатать
Просмотров: 55
		   Author/Artist: Spudgun
Title: Too Late
Album: Watch It Burn
Transcribed by: Jesse Gray
Email: JGray@skantech.com

I love this song.  If you ever come to one of my bands (Liberation
Front) shows, we will probably cover this.

------------------------------------
------------------------------------
------------------------------------
------------------------------------
--------7-5---------7-5-7-----------
-5-6-5------8-5-6-5-------8---------
 Intro, listen to cd to get
rythm                                             

------------------------------------
------------------------------------
----------9--7----------------------
-7--8--7--9--7--10------------------
-7--8--7--7--5--10------------------
-5--6--5--------8-------------------
 Verse, repeat 4
times                                                        

------------------------------------
------------------------------------
----9--10---------------------------
-7--9--10---------------------------
-7--7--8----------------------------
-5----------------------------------
 Strum a few times on the A, then really quick to the other
two               
 3x
------------------------------------
------------------------------------
-10--9--7---------------------------
-10--9--7---------------------------
-8---7--5---------------------------
------------------------------------
                                                                              

-------------------------------------
-------------------------------------
----9--7-----------------------------
-7--9--7-----------------------------
-7--7--5-----------------------------
-5-----------------------------------
 3x,
then,                                                                    

-------------------------------------
-------------------------------------
-10--9--7--9--7------9---------------
-10--9--7--9--7--10--9--10--9--7-----
-8---7--5--7--5--10--7--10--9--7-----
-----------------8------8---7--5-----
 Weird rythm, listen to
cd                                                    

-------------------------------------
-------------------------------------
----9-----9-----9-----9--------------
-7--9--7--9--7--9--9--9--------------
-7--7--7--7--7--7--9--7--------------
-5-----5-----5-----7-----------------
                                                                              

-------------------------------------
-------------------------------------
-------9--7--------------------------
-7--9--9--7--------------------------
-7--9--7--5--------------------------
-5--7--------------------------------

2x                                                                           

---------------------------------------------------------
---------------------------------------------------------
---------------------------------------------------------
-----------------------------------5-5-5-7-7-7-8-8/10-10-
-------------------5-5-5-7-7-7-8-8-----------------------
-5-5-5--7-7-7--8-8---------------------------------------
 Yes, this is about as complicated as punk solos get. (just
kidding)          

-----------------------------------
-----------------------------------
----9--7---------------------------
-7--9--7--10-----------------------
-7--7--5--10-----------------------
-5--------8------------------------
 2x; then repeat riffs
2-5                                                    

Visit my band, Liberation Front, at 
http://members.xoom.com/lxfx
     
Добавлено: 10.07.2013
Другие материалы по этой песне:
  • Аккорды и текст

Страница создана 10.07.2013
http://primanota.ru/spudgun/too-late-chords.htm
Привет, Гость.
Предлагаем пройти революционный курс по гитаре.
Подарок от PrimaNota.Ru, забирай!