PrimaNota.ru - самый крупный в мире бесплатный архив песенных текстов, аккордов, табулатур и нот


Spring - Met De Trein Naar Oostende - аккорды и текст, видео

Регистрация Запомнить меня
Войти через:  Facebook Google Twitter Vk Yandex Mail.ru

Spring - Met De Trein Naar Oostende - аккорды и текст, видео

Печатать
Просмотров: 139
Met De Trein Naar Oostende
Spring
Intro
   Bb  C  | F   Dm              Bb C         F       
e|-13-----|-------------------|------------|-------------|
B|-----15-|-13--15------------|------------|-13--13-15-13|
G|--------|--------14-12------|----12-13-14|-------------|
D|--------|--------------15-12|-15---------|-------------|
A|--------|-------------------|------------|-------------|
E|--------|-------------------|------------|-------------|

   Bb  C  | F   Dm              Bb C         F       
e|-13-----|-------------------|------------|---------|
B|-----15-|-13--15------------|------------|-13-15---|
G|--------|--------14-12------|----12-13-14|---------|
D|--------|--------------15-12|-15---------|-------15|
A|--------|-------------------|------------|---------|
E|--------|-------------------|------------|---------|

REFREIN
F                     Bb
Met de trein naar Oostende
C             F
Tjoeke Tjoeke Tuut
                           Bb
Want daar woont mijn hartendief
       C           F
Tjoeke Tjoeke Tuut Tuut
                     Bb
Die me weken lang verwende
C             F     Dm
Tjoeke Tjoeke Tuut
       Bb      C        F 
Daarom werd ze ook mijn lief

___________________________________________________________________

   Bb  C  | F   Dm              Bb C         F       
e|-13-----|-------------------|------------|-----|
B|-----15-|-13--15------------|------------|-13--|
G|--------|--------14-12------|----12-13-14|-----|
D|--------|--------------15-12|-15---------|-----|
A|--------|-------------------|------------|-----|
E|--------|-------------------|------------|-----|

            F          Bb   Gm       C           F      Bb Gm C
Het was een lange hete zomer, in Oostende op het strand
         Dm                 C      G/B
Ik was romantisch, echt een dromer
                      C
Maar ik was vooral verbrand
                            Dm    c Bb          A              Dm
Ze kwam mij redden van mijn pijnen,   Wat heeft zij mij toen geleerd.
       Eb                                  C
Dat ik niet zo weg zou Kwijnen, Als ik mij maar had ingesmeerd.


Refrein 2×


   Bb  C  | F   Dm              Bb C         F       
e|-13-----|-------------------|------------|---------|
B|-----15-|-13--15------------|------------|-13-15---|
G|--------|--------14-12------|----12-13-14|---------|
D|--------|--------------15-12|-15---------|-------15|
A|--------|-------------------|------------|---------|
E|--------|-------------------|------------|---------|

          F            Bb    Gm       C           F    Bb Gm C
Ze had me zoveel te vertellen,  en ik luisterde gedwee
           Dm        C     G/B                   C
Ze was een wonder in pellen, van garnalen uit de zee.
                      Dm    C Bb       A             Dm
Ze kende alles van de vissen,   van de schol en kabeljauw
      Eb                                 C
En ik kon haar niet meer missen, toen ze zei ik hou van jou"


Refrein 2×

     Em     A        Dm           Em       A       Dm
De vakantie liep ten einde, en ze kon niet met mij mee.
        Em     A    Dm           G                 C
Maar nu zit ik alle weken, op de sneltrein naar de zee.

Modulatie +0,5 
REFREIN 3×

F#                    B
Met de trein naar Oostende
C#            F#
Tjoeke Tjoeke Tuut
                           B
Want daar woont mijn hartendief
       C#          F#
Tjoeke Tjoeke Tuut Tuut
                     B
Die me weken lang verwende
C#            F#    Ebm
Tjoeke Tjoeke Tuut
       B       C#       F# 
Daarom werd ze ook mijn lief
Добавлено: 30.05.2016
Другие материалы по этой песне:
  • Аккорды и текст

Страница создана 30.05.2016
http://primanota.ru/spring/met-de-trein-naar-oostende-chords.htm
Привет, Гость.
Предлагаем пройти революционный курс по гитаре.
Подарок от PrimaNota.Ru, забирай!