PrimaNota.ru - самый крупный в мире бесплатный архив песенных текстов, аккордов, табулатур и нот


Spring - Marjolein - аккорды и текст, видео

Регистрация Запомнить меня
Войти через:  Facebook Google Twitter Vk Yandex Mail.ru

Spring - Marjolein - аккорды и текст, видео

Печатать
Просмотров: 82
Marjolein
Spring
INTRO

Gtr.1
 |Eb      |Eb                |Gm      |Ab       
e|--------|------------------|--------|--------------|
B|-8-6----|-6----------------|-8-6----|-6---------6--|
G|-----8--|---8-5---5-8-5----|-----8--|---8-5---8----|
D|--------|-------8-------8--|--------|-------8------|
A|--------|------------------|--------|--------------|
E|--------|------------------|--------|--------------|

Gtr.1
 |Eb       |Eb                   |Gm       |Ab             |Eb
e|---------|---------------------|---------|---------------|---|
B|-8--6----|-6-------------------|-8--6----|-6----------6--|-8-|
G|------8--|---8-5----5--8-5-----|------8--|---8-5----8----|---|
D|---------|--------8---------8--|---------|--------8------|---|
A|---------|---------------------|---------|---------------|---|
E|---------|---------------------|---------|---------------|---|

Gtr.2
e|---------|---------------------|---------|---------------|---|
B|-11-9-8--|-9-8---------8-------|-11-9-8--|-9-8------8----|---|
G|---------|-----10-8-10---10-8--|---------|-----10-8---10-|-8-|
D|---------|---------------------|---------|---------------|---|
A|---------|---------------------|---------|---------------|---|
E|---------|---------------------|---------|---------------|---|

   Eb
Ik zit naar jou te kijken
         Gm        Ab
Met mijn mond wijd open
     Eb                        Gm       Ab
Mijn vrienden zeg dat ik beter niet kan hopen
                 Fm      Bb            Eb
Ik hoor dat alle jongens luidop van je dromen
                  Fm        Bb              Eb
Daarom ben ik speciaal voor jou naar hier gekomen
                    Db  Ab
Ik stel vandaag die ene vraag 
                 Db       Eb
En ik wil nu het antwoord graag

REFREIN
Eb              
Mijn lieve Marjolein
           Bbm
Wil jij me liefste niet zijn
     Fm       Ab                  Eb
Marjolein, ik zou zo graag bij je zijn
             Eb
Ik zal alles geven:
                           Bbm
Mijn hart, mijn ziel, mijn leven
                Fm
Mijn lieve Marjolein
    Ab           Eb
Hoe mooi zou dat zijn

 |Eb       |Eb                   |Gm       |Ab            |Eb
e|---------|---------------------|---------|--------------|---|
B|-8--6----|-6-------------------|-8--6----|-6----------6-|-8-|
G|------8--|---8-5----5--8-5-----|------8--|---8-5----8---|---|
D|---------|--------8---------8--|---------|--------8-----|---|
A|---------|---------------------|---------|--------------|---|
E|---------|---------------------|---------|--------------|---|

   Eb 
Ik schreef je liefdesbrieven
      Gm      Ab
En ik stuurde rozen
   Eb                             Gm     Ab
Ik zit nu vol verlangen hier voor jou te blozen
                      Fm    Bb             Eb
Ik weet jij hebt geen reden om voor mij te kiezen
                   Fm 
Maar toch ben ik gekomen
    Bb           Eb
Wat heb ik te verliezen
                    Db  Ab
Ik stel vandaag die ene vraag 
                 Db       Eb
En ik wil nu het antwoord graag

REFREIN 2×
  
   Ab
Je zegt dat ik heel lief ben
     Bb
Maar dat je nog wil vrij zijn 
   Ab
Je neemt me vast en kust me
     Bb            B 
Moet ik hiermee nu blij zijn

REFREIN 3×
N.c.            E              
Mijn lieve Marjolein
           Bm
Wil jij me liefste niet zijn
     F#m      A                   E
Marjolein, ik zou zo graag bij je zijn
             E
Ik zal alles geven:
                           Bm
Mijn hart, mijn ziel, mijn leven
                F#m
Mijn lieve Marjolein
    A            E
Hoe mooi zou dat zijn
Добавлено: 30.05.2016
Другие материалы по этой песне:
  • Аккорды и текст

Страница создана 30.05.2016
http://primanota.ru/spring/marjolein-chords.htm
Привет, Гость.
Предлагаем пройти революционный курс по гитаре.
Подарок от PrimaNota.Ru, забирай!