PrimaNota.ru - самый крупный в мире бесплатный архив песенных текстов, аккордов, табулатур и нот


Spring - Lien - аккорды и текст, видео

Регистрация Запомнить меня
Войти через:  Facebook Google Twitter Vk Yandex Mail.ru

Spring - Lien - аккорды и текст, видео

Печатать
Просмотров: 88
Lien
Spring
G            C         
Urenlang heb ik gezocht
G                 Am
Ik kon je nergens vinden
   G           A
Ik maakte deze lange tocht
C                   D
Want dat doen echte vrienden

    G             C
Hé, meisje zeg me wat er scheelt
Bm                  C
Je zit daar als een wassenbeeld
            Em    D        C
Waar is die mooie lach van jou
             Am            D
Je weet toch dat ik van je hou

REFREIN
                Am
Lien, laat eens zien
       D               G
Wat de kleur is van je ogen
     Em            Am
Jouw tranen moeten drogen
     D               G
Jouw glimlach wil ik zien
      Em                  Am
Lieve Lien, toe laat eens zien
       D              G
Dat je zin hebt om te leven
    Em             Am
Dat jij iets wil beleven
         D            C
Dus stop nu met dan gegrien

   G           Am
De hele wereld wacht op jou
Bm                    C
Dus haast je kom naar buiten
   D           A
De lentezon ontdooit de kou
D
De eerste vogels fluiten

   G                 Am            Bm
Ik weet je hebt heel veel verdriet
Bm                 C
En dat verdriet verdien je niet
          Em      D      C    Bm
Ik weet alleen is maar alleen
           C                   D
Maar samen slaan we er ons doorheen

REFREIN

G | Eb |

F                G     Eb
Kijk eens naar omhoog
Eb   F            G      Eb
Daar is de blauwe lucht
F                G     Eb
Kijk eens naar omhoog
Eb F             Dm
En ga niet op de vlucht

SOLO
 |N.c.    |Bbm        |Eb         |Ab  |Fm    
e|--------|-----------|-----11----|----|----------|
B|------9-|-11~--9-11-|9-11----11-|-13~|~----11-13|
G|-8-10---|-----------|-----------|----|--13------|
D|--------|-----------|-----------|----|----------|
A|--------|-----------|-----------|----|----------|
E|--------|-----------|-----------|----|----------|

 |Bbm           |Eb      |Ab        |Fm       
e|--------------|--------|----------|--------|
B|13-14-14-13-14|-16-16~-|-13-------|------9-|
G|--------------|--------|----15-13-|-8-10---|
D|--------------|--------|----------|--------|
A|--------------|--------|----------|--------|
E|--------------|--------|----------|--------|

 |Bbm        |Eb         |Ab    |Fm    
e|-----------|-----11----|------|----------|
B|-11~--9-11-|9-11----11-|13-13~|~----11-13|
G|-----------|-----------|------|--13------|
D|-----------|-----------|------|----------|
A|-----------|-----------|------|----------|
E|-----------|-----------|------|----------|

 |Bbm       |Eb              |Db C Bbm Ab      
e|----------|----------------|-----------|
B|13-14-14~-|-16-------------|-----------|
G|----------|----15b17r15-13-|-13--------|
D|----------|----------------|-----------|
A|----------|----------------|-----------|
E|----------|----------------|-----------|

REFREIN
                Bbm
Lien, laat eens zien
       Eb              Ab
Wat de kleur is van je ogen
     Fm            Bbm
Jouw tranen moeten drogen
     Eb              Ab
Jouw glimlach wil ik zien
      Fm                  Bbm
Lieve Lien, toe laat eens zien
       Eb             Ab
Dat je zin hebt om te leven
    Fm             Bbm
Dat jij iets wil beleven
         Eb           Db   C Bbm Ab
Dus stop nu met dan gegrien


b - Bend note 
r - Return from bend
Добавлено: 14.02.2016
Другие материалы по этой песне:
  • Аккорды и текст

Страница создана 14.02.2016
http://primanota.ru/spring/lien-chords.htm
Привет, Гость.
Предлагаем пройти революционный курс по гитаре.
Подарок от PrimaNota.Ru, забирай!