PrimaNota.ru - самый крупный в мире бесплатный архив песенных текстов, аккордов, табулатур и нот


Spring Heeled Jack - Electric - бас-таба, видео

Регистрация Запомнить меня
Войти через:  Facebook Google Twitter Vk Yandex Mail.ru

Spring Heeled Jack - Electric - бас-таба, видео

Печатать
Просмотров: 84
Song: Electric	
Artist: Spring Heeled Jack
Album: Static World View (1996)
Bassist: Rick Omonte

Tabbed by John

Intro
G-------------------
D------------------- 12x
A--------------5555-
E-5-555-555-55------

G--------------------------
D--4-4-2---------2-4-22-42- 6x
A--------5-4-5-------------
E-2------------0-----------

G-------------------
D------------------- 12x
A--------------5555-
E-5-555-555-55------

Verse
G-------------------------------------1-----
D-----2-----2-444-2-----4-7---4-7-2-4---4-2-
A-0-4---0-4---------5-5-----5---------------
E-------------------------------------------

Chorus
G-----------------------
D-------2---5---2------- 4x
A---2-3---5---2---5-3-2-
E-3---------------------
     
Добавлено: 06.12.2013
Другие материалы по этой песне:
  • Аккорды и текст

Страница создана 26.11.2013
http://primanota.ru/spring-heeled-jack/electric-chords.htm
Привет, Гость.
Предлагаем пройти революционный курс по гитаре.
Подарок от PrimaNota.Ru, забирай!