PrimaNota.ru - самый крупный в мире бесплатный архив песенных текстов, аккордов, табулатур и нот


Spricket Charlie - Go - таба, видео

Регистрация Запомнить меня
Войти через:  Facebook Google Twitter Vk Yandex Mail.ru

Spricket Charlie - Go - таба, видео

Печатать
Просмотров: 74
Guitar Used: Yamaha b/w
Tuning: Normal
Other Guitar Settings/Notes:

Best if played with medium thickness pick.

Effects/Pedals, Effects Order:
> Distortion: Use throughout (0)

Chorus
E|-----------------------------------------------|              
B|-----------------------------------------------|             
G|-----------------------------------------------|             
D|-----------------------------------------------|
A|------2--------2------------------------------|
E|-0-0---1-0-0---1-0-0-3-2-1-0-0-3-2-1---|
repeat x4

Verse 1
E|----------------------------------------------|
B|----------------------------------------------|
G|----------------------------------------------|
D|----------------------------------------------|
A|---3------------3-4--------------------------|
E|-2--3-2-1-2-3-----5-7-8-6-9-5*3-2-1-0*|

Chorus

Verse 2
E|--------------------------------------------------------------------|
B|--------------------------------------------------------------------|
G|--------------------------------------------------------------------|
D|----------------------------------------------2--4--9--------------|
A|-----------------------2--4--9--3--7--3--6----------8--5--------|
E|2--4--9--7--8--9--5---------------------------------------5--0--|

Chorus
repeat all x2

slide last E1 to E5 and play
E|-------------------------------------------------|
B|-------------------------------------------------|
G|-------------------------------------------------|
D|-------------------------------------------------|
A|-------------------------------------------------|
E|5--7--7--7--5--7--7--7--5--3--3--3--0--|

     
Добавлено: 05.08.2013
Другие материалы по этой песне:
  • Аккорды и текст

Страница создана 05.08.2013
http://primanota.ru/spricket-charlie/go-chords.htm
Привет, Гость.
Предлагаем пройти революционный курс по гитаре.
Подарок от PrimaNota.Ru, забирай!