PrimaNota.ru - самый крупный в мире бесплатный архив песенных текстов, аккордов, табулатур и нот


Spotnicks - Sentimental Guitar - таба, видео

Регистрация Запомнить меня
Войти через:  Facebook Google Twitter Vk Yandex Mail.ru

Spotnicks - Sentimental Guitar - таба, видео

Печатать
Просмотров: 202
Уроки эстрадного вокала в Санкт-Петербурге
-------------------------------------------------------------------------------
                             SENTIMENTAL GUITAR – The Spotnicks
-------------------------------------------------------------------------------
Tabbed by: Chris Sullivan a.k.a. anthroposkid
Email: anthroposkid@yahoo.com

Tuning: standard

e|---------------------------------------------------------------------------|
B|---------------------------------------------------------------------------|
G|---------------------------------------------------------------------------|
D|---------------------------------------------------------------------------|
A|---------------------------------------------------------------------------|
E|-----6h8-------------------------------------------------------------------
|
Play this first part 4 times

e|---------------------------------------------------------------------------|
B|---------------------------------------------------------------------------|
G|---------------------------------------------------------------------------|
D|-----------10---------------------10--------------------5---5--------------|
A|---10-8-10---10-8-6-------10-8-10----10-8-6-------8-6-8---8---8-6-8-6---5--|
E|-8------------------8-6-8-------------------8-6-8--------------------------|

e|---------------------------------------------------------------------------|
B|---------------------------------------------------------------------------|
G|---------------------------------------------------------------------------|
D|-----------10---------------------10--------------------5------------------|
A|---10-8-10---10-8-6-------10-8-10----10-8-6-------8-6-8---8-6--------------|
E|-8------------------8-6-8-------------------8-6-8-------------8-6-8--------|


e|------------------------------------/--------------------------------------|
B|------------------------------------/--------------------------------------|
G|-------10-12-15—12p10---------------/---------8----------------------------|
D|-10-13---------------13-10----------/-----8-10--10p8-----------------------|
A|---------------------------15-13-15-/-8-11-----------11-8------------------|
E|------------------------------------/---------------------13-11-13---------|


e|------------------------------------/--------------------------------------|
B|------------------------------------/--------------------------------------|
G|-------10-12-15—12p10---------------/--------------------------------------|
D|-10-13---------------13-10-10-------/----8--6--5-------8--6--5-------------|
A|------------------------------------/----8--6--5-------8--6--5-------------|
E|------------------------------------/----6--4--3-------6--4--3-------------|

e|---------------------------------------------------------------------------|
B|------------11-------------------------11-----------------------8----------|
G|---12-10-12----12-10-8--------12-10-12----12-10-8--------10-8-10--10-8-----|
D|-10--------------------10-8-10--------------------10-8-10------------->>>>-|
A|---------------------------------------------------------------------------|
E|---------------------------------------------------------------------------|

e|---------------------------------------------------------------------------|
B|---------------------------------------------------------------------------|
G|---------------------------------------------------------------------------|
D|-10-8-10-------------------------------------------------------------------|
A|---------------------------------------------------------------------------|
E|---------------------------------------------------------------------------|

e|---------------------------------------------------------------------------|
B|---------------------------------------------------------------------------|
G|---------------------------------------------------------------------------|
D|---------------------------------------------------------------------------|
A|---------------------------------------------------------------------------|
E|-8-10-11-10-8-6-8-/-/-8-10-11-10-8-6-4-/-/---------------------------------|

e|---------------------------------------------------------------------------|
B|---------------------------------------------------------------------------|
G|---------------------------------------------------------------------------|
D|-------------------------8--6--5----8--6--6--------------------------------|
A|-------------------------8--6--5----8--6--5--------------------------------|
E|-8-10-11-10-8-6-8-/-/----6--4--3----6--4--3--------------------------------|

e|---------------------------------------------------------------------------|
B|---------------------------------------------------------------------------|
G|---------------------------------------------------------------------------|
D|-----------10---------------------10--------------------5------------------|
A|---10-8-10---10-8-6-------10-8-10----10-8-6-------8-6-8---8-6--------------|
E|-8------------------8-6-8-------------------8-6-8-------------8-6-8--------|

e|---------------------------------------------------------------------------|
B|---------------------------------------------------------------------------|
G|---------------------------------------------------------------------------|
D|---------------------------------------------------------------------------|
A|---------------------------------------------------------------------------|
E|-----6h8-------------------------------------------------------------------
|
Play this first part 3 times let the last time ring



************************************

| /   slide up
| \   slide down
| h   hammer-on
| p   pull-off
| ~   vibrato
| +   harmonic
| x   Mute note
| b   Bend
| pb  Pre-bend
| br  Bend release
| pbr Pre-bend release
| brb Bend release bend

************************************
Добавлено: 15.06.2012
Другие материалы по этой песне:
  • Аккорды и текст

Страница создана 15.06.2012
http://primanota.ru/spotnicks/sentimental-guitar-chords.htm
Привет, Гость.
Предлагаем пройти революционный курс по гитаре.
Подарок от PrimaNota.Ru, забирай!