PrimaNota.ru - самый крупный в мире бесплатный архив песенных текстов, аккордов, табулатур и нот


Spotnicks - Just listen to my heart - таба, видео

Регистрация Запомнить меня
Войти через:  Facebook Google Twitter Vk Yandex Mail.ru

Spotnicks - Just listen to my heart - таба, видео

Печатать
Просмотров: 113


Author/Artist: The Spotnicks / Frank Ifield
Title: Just listen to my heart
Album: The Spotnicks in Paris
Transcribed by: M. Julin
Email: markku.j@tele2.se

Written by F. Ifield

The Spotnicks version (1962) .From the record mentioned above
Bo change key from C to C# in the end eight bars and repeats the last four bars 
twice in different octaves.Listen to the record.

-------||----------------|---------------|---------------------|--------------
-8-8-8-||8--------8-8--6-|-6------8-8--6-|-6-------------------|--------------
-------||--9-------------|---------------|---------------------|--------------
-------||----9-----------|---7-7---------|---6-6--6-h8-6--h8-6-|-5--5-5-------
-------||----------------|---------------|---------------------|--------------
-------||----------------|---------------|---------------------|--------------
 (G7)     i. C             F               Fm                    C            

-----------|---------|--------------|----------|-------------||-----|---------
---------5-|---------|--------------|----------|-------8-8-8-||-----|---------
-------5---|-7--7-7--|-------4-7--5-|5-5-------|-------------||-----|-5-5-----
-5-5-7-----|---------|-5-5-7--------|----------|-------------||-----|---------
-----------|---------|--------------|----------|-------------||-----|---------
-----------|---------|--------------|----------|-------------||-----|---------
             D        G             1. C        (d.c. from i.)      2.  C     

-----------|------------------------------------------------------------------
-----------|------------------------------------------------------------------
-55-6--7-8-|------------------------------------------------------------------
-----------|------------------------------------------------------------------
-----------|------------------------------------------------------------------
-----------|------------------------------------------------------------------
 (to  bridge) 



Bridge                                                                

-||-----------------|-----------------|--------------|------------|-----------
-||-----------------|-----------------|--------------|------------|-----------
-||-9--9-9----------|-9--10-9--7--9-7-|-5-7-5--4-5-4-|------9-9-8-|-7-7-7-----
-||-----------------|-----------------|--------------|-7----------|-----------
-||-----------------|-----------------|--------------|------------|-----------
-||-----------------|-----------------|--------------|------------|-----------
   E                  E                 Am     E      Am            D         

-|-----------------|---------|----------||--
-|-----------------|---------|---8-8-8--||--
-|----------7-9----|-7-------|----------||--
-|7-7--9-10-----10-|---------|----------||--
-|-----------------|---------|----------||--
-|-----------------|---------|----------||--
  D                  Dm       G7           (end bridge)                       

-|---------------|-------------|---------------------|-----------|---------|--
-|-8------8-8--6-|-6-----8-8-6-|-6-------------------|---------5-|---------|--
-|---9-----------|---7-7-------|---------------------|-------5---|-7--7-7--|--
-|-----9---------|-------------|---6-6-6-h8-6-6-h8-6-|-5-5-7-----|---------|--
-|---------------|-------------|---------------------|-----------|---------|--
-|---------------|-------------|---------------------|-----------|---------|--
   C              F             Fm                    C            D          

-|--------------|-----------|--
-|--------------|-----------|--
-|-------4-7--5-|-5-5-------|--
-|-5-5-7--------|-----------|--
-|--------------|-----------|--
-|--------------|-----------|--
   G              C    (G7)                                                   


 Verse high pos.(This part originally played by organ - this way U can do it  
 on Guitar) 

-|----15-15-15-|-15-------/15-15-13-|-13--------15-15-13-13-------------------
-|-------------|----17--------------|-----------------------------------------
-|-------------|-------16-----------|----14-14--------------13-13-13-h15-13---
-|-------------|--------------------|-----------------------------------------
-|-------------|--------------------|-----------------------------------------
-|-------------|--------------------|-----------------------------------------

-------|--------------12-----------|--------------------|----------------|----
-------|-----------13----15--15-15-|----------12-15--13-|-13-13----------|----
-15-13-|-12--12-14-----------------|-12-12-14-----------|----------------|----
-------|---------------------------|--------------------|----------------|----
-------|---------------------------|--------------------|----------------|----
-------|---------------------------|--------------------|----------------|----
                                                                   
Enjoy 


Добавлено: 26.12.2013
Вам также может быть интересно:
Другие материалы по этой песне:
  • Аккорды и текст

Страница создана 26.12.2013
http://primanota.ru/spotnicks/just-listen-to-my-heart-chords.htm
Привет, Гость.
Предлагаем пройти революционный курс по гитаре.
Подарок от PrimaNota.Ru, забирай!