PrimaNota.ru - самый крупный в мире бесплатный архив песенных текстов, аккордов, табулатур и нот


Sporks - The Grind - таба, видео

Регистрация Запомнить меня
Войти через:  Facebook Google Twitter Vk Yandex Mail.ru

Sporks - The Grind - таба, видео

Печатать
Просмотров: 72
Artist: The Sporks
Song: The Grind
Music written by: Chris Petrovich
Tabbed by: imsporked@hotmail.com
 
 
E-----------------------------------------------------------
B-----------------------------------------------------------
G-----------------------------------------------------------
D-----------------101010101010--------555555----------------
A----777777-------8-8-8-8-8-8---------333333------555555----
E----555555---------------------------------------333333----
 
Over and over^Å.
 
 
E-------------------------------
B-------------------------------
G-------------------------------
D----------------------7777-----
A-----7/5-5/7----5555--5555-----
E-----5/3-3/5----3333-----------
 
Chorus:
E--------------------------------------
B--------------------------------------
G--------------------------------------
D-------------1010------55-------------
A-----77-------8-8------33-----55------
E-----55-----------------------33------
 

     
Добавлено: 07.10.2013
Другие материалы по этой песне:
  • Аккорды и текст

Страница создана 07.10.2013
http://primanota.ru/sporks/the-grind-chords.htm
Привет, Гость.
Предлагаем пройти революционный курс по гитаре.
Подарок от PrimaNota.Ru, забирай!