PrimaNota.ru - самый крупный в мире бесплатный архив песенных текстов, аккордов, табулатур и нот


Sporks - Take It Away - таба, видео

Регистрация Запомнить меня
Войти через:  Facebook Google Twitter Vk Yandex Mail.ru

Sporks - Take It Away - таба, видео

Печатать
Просмотров: 65
Artist: The Sporks
Song: take it away
Music written by: Chris Petrovich
Tabbed by: NJSPORKS@AOL.COM

THE SPORKS ARE ONE OF THE BEST ROCK PUNK BANDS OUT OF NEW JERSEY.
CHECK THEM OUT!!! email the band at NJSPORKS@AOL.COM

INTRO
e----------------------------------
b----------------------------------
g--------97------------------------
d--99-9--75--0-55-5-757------------
a--77-7------0-33-3-535------------
e----------------------------------

Part 1:
e----------------------------------
b----------------------------------
g--------97------------------------
d--99-9--75-0-555555-444444--------
a--77-7-----0-444444-222222--------
e----------------------------------

Part 2:
e----------------------------------
b----------------------------------
g--------[-pm-]---------55-5-77-7--
d-999999-7-5-7--999999--33-3-55-5--
a-777777-5-7-5--777777-------------
e----------------------------------

Part 3:
e----------------------------------
b----------------------------------
g----------------------------------
d-999999----------777777-555-777---
a-777777--555555--555555-333-555---
e---------333333-------------------



     
Добавлено: 07.07.2013
Вам также может быть интересно:
Другие материалы по этой песне:
  • Аккорды и текст

Страница создана 07.07.2013
http://primanota.ru/sporks/take-it-away-chords.htm
Привет, Гость.
Предлагаем пройти революционный курс по гитаре.
Подарок от PrimaNota.Ru, забирай!