PrimaNota.ru - самый крупный в мире бесплатный архив песенных текстов, аккордов, табулатур и нот


Sporks - Steamroller - таба, видео

Регистрация Запомнить меня
Войти через:  Facebook Google Twitter Vk Yandex Mail.ru

Sporks - Steamroller - таба, видео

Печатать
Просмотров: 61
Artist: The Sporks
Song: Steamroller
Music written by: Chris Petrovich
Tabbed by: imsporked@hotmail.com
 
Part 1:
 
E------------------------------------------------
B------------------------------------------------
G------------------------------------------------
D---------99--55--77---------99---1010-----------
A----77---77--33--55----77---77----8-8---1010----
E----55-----------------55----------------8-8----
 
Part 2:
E---------------------------------------------------
B---------------------------------------------------
G---------------------------------------------------
D-------------------------101010101010-999-10-9--7--
A---777777--101010101010---8-8-8-8-8-8^×777--9-7--5--
E---555555---8-8-8-8-8-8----------------------------
 
Part 3:
E------------------------------------------------
B------------------------------------------------
G-------------------------------------5----------
D-----------999999---555555-------5-----5---7----
A---777777^×-777777---333333---5-7---7-----7------
E---555555---------------------------------------
 
Part 4:
E----------------------------
B----------------------------
G----------9-10--12121212----
D----------7--8^×-10101010----
A--77777---------------------
E--55555---------------------
 
Part 5:
E-----------------------------------------
B-----------------------------------------
G-----------------------------------------
D------------7-9---9---------1010-10------
A--1010--10--5-7---7--77--7---8-8--8------
E---8-8---8-----------55--5---------------
 

     
Добавлено: 03.11.2013
Другие материалы по этой песне:
  • Аккорды и текст

Страница создана 03.11.2013
http://primanota.ru/sporks/steamroller-chords.htm
Привет, Гость.
Предлагаем пройти революционный курс по гитаре.
Подарок от PrimaNota.Ru, забирай!