PrimaNota.ru - самый крупный в мире бесплатный архив песенных текстов, аккордов, табулатур и нот


Sporks - Speed - таба, видео

Регистрация Запомнить меня
Войти через:  Facebook Google Twitter Vk Yandex Mail.ru

Sporks - Speed - таба, видео

Печатать
Просмотров: 66
Artist: The Sporks

Song: Speed

Music written by: Chris Petrovich

Tabbed by: imsporked@hotmail.com

 

Part 1:

E------------------------

B------------------------

G-------5----------------

D--33---3----555555555---

A--11--------333333333---

E------------------------

 

Part 2:

E----------------------------

B----------------------------

G----------------------------

D--3-1----222---3-1----333---

A------3--000-------3^×-111---

E----------------------------

 

Part 3:

E----------------------------

B----------------------------

G----------------------------

D--3-1----2-P-2^×3-1---3-P-3--

A------3--0-P-0-----3-1-P-1--

E----------------------------

 

Part 4:

E---------------------

B---------------------

G---------------------

D--5555----3333-------

A--3333----1111-------

E---------------------

 

P=Pause.
     
Добавлено: 23.07.2013
Другие материалы по этой песне:
  • Аккорды и текст

Страница создана 23.07.2013
http://primanota.ru/sporks/speed-chords.htm
Привет, Гость.
Предлагаем пройти революционный курс по гитаре.
Подарок от PrimaNota.Ru, забирай!