PrimaNota.ru - самый крупный в мире бесплатный архив песенных текстов, аккордов, табулатур и нот


Sporks - Nineteen - бас-таба, видео

Регистрация Запомнить меня
Войти через:  Facebook Google Twitter Vk Yandex Mail.ru

Sporks - Nineteen - бас-таба, видео

Печатать
Просмотров: 90
Уроки эстрадного вокала в Санкт-Петербурге
Artist: The Sporks
Song: Nineteen
Music written by: Chris Petrovich
Tabbed by: NJSPORKS@AOL.COM



INTRO
g------------------------------------------------------------------
d-------5-555-5----------------------------------------------------
a---578---------875-555-578----------578-888-875-------------------
e---------------------------8-888-8--------------8-888-------------

g-----------------------------------5-555-875----------------------
d---------------5-555-875-------578-----------8-888--578-----------
a-----5-555-578-----------8-888------------------------------------
e-578--------------------------------------------------------------

VERSE 1:
g--------------------------------------------------------------------------
d--------------------------------------------------------------------------
a--555555555555-----88888888888-----555555555555-----888888888888-10-10-7--
e---------------667-------------776--------------667-----------------------

VERSE 2:
g----------------------------------------------------------------------
d-------------------------------------333333---------------------------
a--555555-333333---------------555555--------333333-111-333------------
e----------------111111-333333-----------------------------------------

BREAKDOWN:
g-------------------------------------------------------------
d--------33-----33----------------33------33-----567----------
a--55 3H5---3H5 ---3H5-----55-3H5----3H5----3H5--------------
e----------------------345------------------------------------

     
Добавлено: 27.09.2013
Другие материалы по этой песне:
  • Аккорды и текст

Страница создана 27.09.2013
http://primanota.ru/sporks/nineteen-chords.htm
Привет, Гость.
Предлагаем пройти революционный курс по гитаре.
Подарок от PrimaNota.Ru, забирай!