PrimaNota.ru - самый крупный в мире бесплатный архив песенных текстов, аккордов, табулатур и нот


Sporks - Just Kidding - таба, видео

Регистрация Запомнить меня
Войти через:  Facebook Google Twitter Vk Yandex Mail.ru

Sporks - Just Kidding - таба, видео

Печатать
Просмотров: 78
Artist: The Sporks
Song: Just Kidding
Music written by: Chris Petrovich
Tabbed by: imsporked@hotmail.com
 
Part 1:
 
E--------------------
B--7-5---5-----------
G------7-------------
D--------------------
A--------------------
E--------------------
 
Part 2:
E------------------------------------------
B------------------------------------------
G------------------------------------------
D--7-7--77------------4-4--44--------------
A--5-5--55---777^×7----2-2--22---55^×77------
E------------555-5--------------33-55------
 
Part 3:
E-------------------------------------------------
B-------------------------------------------------
G-------------------------------------------------
D---77777777------------44444444------------------
A---55555555--77777777--22222222^×-55555555--------
E-------------55555555------------33333333--------
 
Part 4:
E-------------------------------------------------
B------7-5------------5----------5-7----7-5---5---
G----------7-6----6-7---7----6-7------------7-----
D--77----------------------4----------------------
A--55----------77----------2----------5-----------
E--------------55---------------------3-----------

     
Добавлено: 11.11.2013
Другие материалы по этой песне:
  • Аккорды и текст

Страница создана 19.08.2013
http://primanota.ru/sporks/just-kidding-chords.htm
Привет, Гость.
Предлагаем пройти революционный курс по гитаре.
Подарок от PrimaNota.Ru, забирай!