PrimaNota.ru - самый крупный в мире бесплатный архив песенных текстов, аккордов, табулатур и нот


Sporks - Good Times - таба, видео

Регистрация Запомнить меня
Войти через:  Facebook Google Twitter Vk Yandex Mail.ru

Sporks - Good Times - таба, видео

Печатать
Просмотров: 71
Уроки эстрадного вокала в Санкт-Петербурге
Artist: The Sporks

Song: Good Times

Music written by: Chris Petrovich

Tabbed by: imsporked@hotmail.com

 

Part 1:

 

E---------------------------------------------

B---------------------------------------------

G---------------------------------------------

D--99---6h7p6-----------99--6h7p6-------------

A--77---------7-777777--77---------9-999999---

E-------------5-555555-------------7-777777---

 

E------------------------------------------

B------------------------------------------

G------------------------------------------

D--99^×6h7p6--------------------------------

A--77-------7-777777-^×999999999999---------

E-----------5-555555^×-777777777777---------

 

Part 2:

E----------------------------------------------------------------

B----------------------------------------------------------------

G----------------------------------------------------------------

D---55555---------777777--999---7777-p^×5555----------------------

A---33333--555555-555555^×-777---5555-p-3333--55555-999999999999--

E----------333333----------------------------33333-777777777777--

 

Part 3:

E---------------------------------------

B---------------------------------------

G---------------------------------------

D--5--555--999-7--797-------------------

A--3--333--777-5--575-----999999999999--

E-------------------------777777777777--

  {----------3x--------------}
     
Добавлено: 01.07.2013
Другие материалы по этой песне:
  • Аккорды и текст

Страница создана 01.07.2013
http://primanota.ru/sporks/good-times-chords.htm
Привет, Гость.
Предлагаем пройти революционный курс по гитаре.
Подарок от PrimaNota.Ru, забирай!