PrimaNota.ru - самый крупный в мире бесплатный архив песенных текстов, аккордов, табулатур и нот


Sporks - Fast Car - таба, видео

Регистрация Запомнить меня
Войти через:  Facebook Google Twitter Vk Yandex Mail.ru

Sporks - Fast Car - таба, видео

Печатать
Просмотров: 92
Уроки эстрадного вокала в Санкт-Петербурге
Artist: The Sporks
Song: Fast Car
Music written by: Chris Petrovich
Tabbed by: NJSPORKS@AOL.COM

THE SPORKS ARE ONE OF THE BEST ROCK PUNK BANDS OUT OF NEW JERSEY.
CHECK THEM OUT!!! email the band at NJSPORKS@AOL.COM


Intro:
   
e-----------------------------------------------------
b----------------3h--3-5---------------3h-------------
g------------------5----------------------5-3---------
d-----------3h5--------------------3h5----------------
a--55--3h5-----------------55--3h5--------------------
e--33----------------------33-------------------------

e-----------------------------------------------------
b---------------3h--3-5-------------------------------
g-----------------5--------5-3---3--------------------
d----------3h5-----------------5---5-3--3-------------
a--55--3h5--------------5-------------5---5-3-0-------
e--33-------------------3-----------------------------

Part 1:

e-----------------------------------------------------
b--(------3x-------)--------(---4th-time---)----------
g-----------------------------------------------------
d----------55-3-333-----------------333-7777----------
a--55-555--33-1-111---------55-555--111-5555----------
e--33-333-------------------33-333--------------------

Part 2:
e-----------------------------------------------------
b-----------------------------------------------------
g-----------------------------------------------------
d----------------------55555555--33333333-------------
a--55555555--33333333--33333333--11111111-------------
e--33333333--11111111---------------------------------

     
Добавлено: 19.08.2013
Другие материалы по этой песне:
  • Аккорды и текст

Страница создана 19.08.2013
http://primanota.ru/sporks/fast-car-chords.htm
Привет, Гость.
Предлагаем пройти революционный курс по гитаре.
Подарок от PrimaNota.Ru, забирай!