PrimaNota.ru - самый крупный в мире бесплатный архив песенных текстов, аккордов, табулатур и нот


Sporks - F Y A - таба, видео

Регистрация Запомнить меня
Войти через:  Facebook Google Twitter Vk Yandex Mail.ru

Sporks - F Y A - таба, видео

Печатать
Просмотров: 72
Artist: The Sporks
Song: F.Y.A
Music written by: Chris Petrovich
Tabbed by: NJSPORKS@AOL.COM

THE SPORKS ARE ONE OF THE BEST ROCK PUNK BANDS OUT OF NEW JERSEY.
CHECK THEM OUT!!! email the band at NJSPORKS@AOL.COM



Part 1:

    (B)  (D)  (A)  (E)
e----x----2----x----x----------
b----3----3----2----x----------
g----4----2----2----1----------
d----4----x----2----2----------
a----2----x----x----2----------
e----x----x----x----x----------

Part 2:
e-------------------------------------
b-------------------------------------
g-----------222222--------------------
d--444444---000000--222222------------
a--222222-----------000000--222222----
e---------------------------000000----



     
Добавлено: 28.08.2013
Другие материалы по этой песне:
  • Аккорды и текст

Страница создана 28.08.2013
http://primanota.ru/sporks/f-y-a-chords.htm
Привет, Гость.
Предлагаем пройти революционный курс по гитаре.
Подарок от PrimaNota.Ru, забирай!