PrimaNota.ru - самый крупный в мире бесплатный архив песенных текстов, аккордов, табулатур и нот


Sporks - Brighter Horizon - таба, видео

Регистрация Запомнить меня
Войти через:  Facebook Google Twitter Vk Yandex Mail.ru

Sporks - Brighter Horizon - таба, видео

Печатать
Просмотров: 66
Artist: The Sporks
Song: Brighter Horizon
Music written by: Chris Petrovich
Tabbed by: NJSPORKS@AOL.COM 
THE SPORKS ARE ONE OF THE BEST ROCK PUNK BANDS OUT OF NEW JERSEY.
CHECK THEM OUT!!! email the band at NJSPORKS@AOL.COM
INTRO
e--------------------------------------------------
b--------------------------------------------------
g--------------------------------------------------
d--------------------------------------------------
a--000--333---------333----------------------------
e-----------333-111--------------------------------
Part 1:
e----------------------------------------------------
b----------------------------------------------------
g----------------------------------------------------
d-22222222--55555555---------------------------------
a-00000000--33333333-55555555-3333-5555--------------
e--------------------33333333-1111-3333--------------
Part 2:
e---------------------------------------------------
b---------------------------------------------------
g-----0------------0-----------0--------------------
d-22----3-2p0--55----3-2p0-------3-2p0--------------
a-00-----------33-----------55----------3333-5555---
e---------------------------33----------1111-3333---

 

________________________________________________________________________________
     
Добавлено: 01.11.2013
Другие материалы по этой песне:
  • Аккорды и текст

Страница создана 01.11.2013
http://primanota.ru/sporks/brighter-horizon-chords.htm
Привет, Гость.
Предлагаем пройти революционный курс по гитаре.
Подарок от PrimaNota.Ru, забирай!