PrimaNota.ru - самый крупный в мире бесплатный архив песенных текстов, аккордов, табулатур и нот


Spoon - Someone Something - текст песни, бас-таба, видео

Регистрация Запомнить меня
Войти через:  Facebook Google Twitter Vk Yandex Mail.ru

Spoon - Someone Something - текст песни, бас-таба, видео

Печатать
Просмотров: 130
Intro:

  E                D                      E
G-----------------|-----------------|    |-----------------|
D-----------------|-----------------|    |-----------------|
A-7-7-7-7-7-7-7-7-|-5-5-5-5-5-5-5-5-| x2 |-7-7-7-7-7-7-7-7-|
E-----------------|-----------------|    |-----------------|

Verse 1:

  A                                   Ab
G-----------------|-----------------|-----------------|-----------------|
D-7-7-7-7-7-7-7-7-|-7-7-7-7-7-7-7-7-|-6-6-6-6-6-6-6-6-|-6-6-6-6-6-6-6-6-|
A-----------------|-----------------|-----------------|-----------------| x2
E-----------------|-----------------|-----------------|-----------------|

Chorus 1:

  D                 E                 A                 Aaug    A
G-----------------|-----------------|-----------------|-----------------|
D-----------------|-----------------|-7-7-7-7-7-7-7-7-|-7-7-7-7-7-7-7-7-|
A-5-5-5-5-5-5-5-5-|-7-7-7-7-7-7-7-7-|-----------------|-----------------| x2
E-----------------|-----------------|-----------------|-----------------|

Chorus End 1:

  D                                   A
G-----------------|-----------------|-----------------|-----------------|
D-----------------|-----------------|-7-7-7-7-7-7-7-7-|-7-7-7-7-7-7-7-7-|
A-5-5-5-5-5-5-5-5-|-5-5-5-5-5-5-5-5-|-----------------|-----------------|
E-----------------|-----------------|-----------------|-----------------|

  Ab
G-----------------|-----------------|
D-6-6-6-6-6-6-6-6-|-6-6-6-6-6\------|
A-----------------|-----------------|
E-----------------|-----------------|

Verse 2:

  A                                   Ab
G-----------------|-----------------|-----------------|-----------------|
D-7-7-7-7-7-7-7-7-|-7-7-7-7-7-7-7-7-|-6-6-6-6-6-6-6-6-|-6-6-6-6-6-6-6-6-|
A-----------------|-----------------|-----------------|-----------------| x1
E-----------------|-----------------|-----------------|-----------------|

Chorus 2:

  D                 E                 A                 Aaug    A
G-----------------|-----------------|-----------------|-----------------|
D---------------7-|-----------------|-7-7-7-7-7-7-7-7-|-7-7-7-7-7-------|
A-5-5-5-5-5-5-9---|-7-7-7-7-7-7-7-7-|-----------------|-----------9-9-7-| - I'm not sure about the little
E-----------------|-----------------|-----------------|-----------------|   fills at the end of the bars,
                                                                            but it sounds alright...
  D                 E                 A                 Aaug    A
G-----------------|-----------------|-----------------|-----------------|
D---------------7-|-----------------|-7-7-7-7-7-7-7-7-|-7-7-7-7-7-7-7\--|
A-5-5-5-5-5-5-9---|-7-7-7-7-7-7-7-9-|-----------------|-----------------|
E-----------------|-----------------|-----------------|-----------------|

Bridge:

  F5                D                 E
G-----------------|-----------------|-----------------|
D-----------------|-----------------|-----------------|
A-8-8-8-8-8-8-8-8-|-5-5-5-5-5-5-5-5-|-7-7-7-7-7-7-7-7-|
E-----------------|-----------------|-----------------|

  These are Still 8th notes, just spread out to show the hammer on and pull off
  F5                                D                 E
G---------------------------------|-----------------|-----------------|
D---------------------------------|-----------------|-----------------|
A-8---8---8---8---8---8---8hLp8---|-5-5-5-5-5-5-5-5-|-7-7-7-7-7-7-7-7-| L=10
E---------------------------------|-----------------|-----------------|

  F5                D                 E
G-----------------|-----------------|-----------------|
D-----------------|-----------------|-----------------|
A-8-8-8-8-8-8-8-8-|-5-5-5-5-5-5-5-5-|-7-7-7-7-7-7-7-7-| Then Rest for 2 bars
E-----------------|-----------------|-----------------|

Interlude (or something):

  A                                   Ab
G-----------------|-----------------|-----------------|
D-----------------|-----------------|-6-6-6-6-6-6-6-6-|
A-0-0-0-0-0-0-0-0-|-0-0-0-0-0-0-0-0-|-----------------|
E-----------------|-----------------|-----------------|

Verse 3:

  A                                   Ab
G-----------------|-----------------|-----------------|-----------------|
D-7-7-7-7-7-7-7-7-|-7-7-7-7-7-7-7-7-|-6-6-6-6-6-6-6-6-|-6-6-6-6-6-6-6-6-|
A-----------------|-----------------|-----------------|-----------------| x1
E-----------------|-----------------|-----------------|-----------------|

Chorus 3:

  D                 E                 A                 Aaug    A
G-----------------|-----------------|-----------------|-----------------|
D-----------------|-----------------|-7-7-7-7-7-7-7-7-|-7-7-7-7-7-7-7-7-|
A-5-5-5-5-5-5-5-9-|-7-7-7-7-7-7-7-7-|-----------------|-----------------|
E-----------------|-----------------|-----------------|-----------------|

  D                 E                 A                 Aaug    D
G-----------------|-----------------|-----------------|-----------------|
D-----------------|-----------------|-7-7-7-7-7-7-7-7-|-7-7-7-7---------|
A-5-5-5-5-5-5-5-5-|-7-7-7-7-7-7-7-7-|-----------------|---------5-5-5-5-|
E-----------------|-----------------|-----------------|-----------------|

Outro:

  A                         D         A                         D
G-----------------|-----------------|-----------------|-----------------|
D-7-7-7-7-7-7-7-7-|-7-7-7-7---------|-7-7-7-7-7-7-7-7-|-7-7-7-7-------7-|
A-----------------|---------5-5-5-5-|-----------------|---------5-5-9---|
E-----------------|-----------------|-----------------|-----------------|

  A                         D         A                        D
G-----------------|-----------------|-----------------|--------67-7-7-6-|
D-7-7-7-7-7-7-7-7-|-7-7-7-7-------7-|-7-7-7-7-7-7-7-7-|-7-7-7-7---------|
A-----------------|---------5-5-9---|-----------------|-----------------|
E-----------------|-----------------|-----------------|-----------------|

  A                        D          A                        D
G-----------------|--------67-7-7-7-|-----------------|--------67-7-7-6-|
D-7-7-7-7-7-7-7-7-|-7-7-7-7---------|-7-7-7-7-7-7-7-7-|-7-7-7-7---------|
A-----------------|-----------------|-----------------|-----------------| x2 (until fade out)
E-----------------|-----------------|-----------------|-----------------|
Добавлено: 28.10.2015
Другие материалы по этой песне:
  • Аккорды и текст

Страница создана 12.06.2012
http://primanota.ru/spoon/someone-something-chords.htm
Привет, Гость.
Предлагаем пройти революционный курс по гитаре.
Подарок от PrimaNota.Ru, забирай!