PrimaNota.ru - самый крупный в мире бесплатный архив песенных текстов, аккордов, табулатур и нот


Spoon - Me And The Bean - текст песни, таба, бас-таба, видео

Регистрация Запомнить меня
Войти через:  Facebook Google Twitter Vk Yandex Mail.ru

Spoon - Me And The Bean - текст песни, таба, бас-таба, видео

Печатать
Просмотров: 171
Band: Spoon
Song: Me and the Bean


tabbed by jam9383@yahoo.com
from Brit Daniel Solo acoustic recording
and aid of Heath

Intro

  Em          G
e-0-0--0-0-0--3--3-3--3---------|
B-0-0--0-1-0--0--0-1--0---------|
G-0-0--0-0-0--0--0-0--0---------|
D-2-2--2-2-2--0--0-0--0---------|
A-2-2---------2--2----2---------|
E-0-0---------3--3----3---------|
  Em          C
e-0-0--0-0-0--0--0-0--0---------|
B-0-0--0-1-0--1--1-1--1---------|
G-0-0--0-0-0--0--0-0--0---------|
D-2-2--2-2-2--2--2-2--2---------|
A-2-2---------3--3----3---------|
E-0-0---------------------------|

Verse

Em                G
There's A Girl In My Yard
Em              C
Reading Me My Tarot Cards
She Don't Know Anything
But She's Beautiful To Me

Bridge/Break

e|-3-3-3-3-3-3-3-3-|-3-3-3-3-3-3-3-0-|-2-2-2-2-2-2-2-0-|-----------------|
b|-1-1-1-1-1-1-1-3-|-3-3-3-3-3-3-3-3-|-3-3-3-3-3-3-3-3-|-4-4-4-4-4-4-4-4-|
G|-2-2-2-2-2-2-2---|-2-2-2-2-2-2-2-2-|-0-0-0-0-0-0-0-0-|-4-4-4-4-4-4-4-4-|
D|-----------------|-----------------|-----------------|-----------------|
A|-----------------|-----------------|-----------------|-----------------|
E|-----------------|-----------------|-----------------|-----------------|

Modified riff at end of song
e|-3-3-3-3-3-3-3-3-|-3-3-3-3-3-3-3-0-|-2-2-2-0-0-2-2-0-|(0-0-0-0-0-0-0-0)|
b|-1-1-1-1-1-1-1-3-|-3-3-3-3-3-3-3-3-|-3-3-3-3-3-3-3-3-|-4-4-4-5-4-0-0-0-|
G|-2-2-2-2-2-2-2---|-2-2-2-2-2-2-2-2-|-0-0-0-0-0-0-0-0-|-4-4-4-4-4-4-4-4-|
D|-----------------|-----------------|-----------------|-----------------|
A|-----------------|-----------------|-----------------|-----------------|
E|-----------------|-----------------|-----------------|-----------------|

Em                G
My Eyes Are Opening Again
Em                C
I See You As You're Marching In
I'll Bring You Cover When You're Cold
You'll Bring Me Youth When I Grow Old

Em                  G
Do You Remember When You Were Small
Em                   C
How Everybody Would Seem So Tall
I Am Your Shadow In The Dark
I Have Your Blood Inside My Heart

corrections/comments e-mail, please rate
Добавлено: 27.06.2012
Другие материалы по этой песне:
  • Аккорды и текст

Страница создана 16.06.2012
http://primanota.ru/spoon/me-and-the-bean-chords.htm
Привет, Гость.
Предлагаем пройти революционный курс по гитаре.
Подарок от PrimaNota.Ru, забирай!