PrimaNota.ru - самый крупный в мире бесплатный архив песенных текстов, аккордов, табулатур и нот


Spooky Tooth - Better By You Better Then Me - бас-таба, видео

Регистрация Запомнить меня
Войти через:  Facebook Google Twitter Vk Yandex Mail.ru

Spooky Tooth - Better By You Better Then Me - бас-таба, видео

Печатать
Просмотров: 78
-------------------------------------------------------------------------------
                  Better by you better then me - Spooky Tooth
-------------------------------------------------------------------------------
Tabbed by:
E-mail: Emek

Tuning: E A D G B E

G|----------------5~---------------X-----------------------------------------|
D|--5h7--7--7--7-----5h7--7--7--7--X-----------------------------------------|
A|---------------------------------X-----------------------------------------|
E|---------------------------------X-----------------------------------------|

G|----------------3----------------X-----------------------------------------|
D|--3h5--5--5--5-----3h5--5--5--5--X-----------------------------------------|
A|---------------------------------X-----------------------------------------|
E|---------------------------------X-----------------------------------------|

You hear the teaching of the wind...
Tell her now i've got to go..
G|---------------------------------------------------------------------------|
D|---------------------------------------------------------------------------|
A|------5--8--7--------------------------------------------------------------|
E|--5------------------------------------------------------------------------|

Repeat 1st riff then go to :
G|---------------------------------------------------------------------------|
D|----------------------3----------------------------------------------------|
A|--3h5--5--5--5--5--5-----3h5--5--5--5---5---5hold--------------------------|
E|---------------------------------------------------------------------------|

Slow part
Better by you better then me...
G|-------------------------------------------------------------------------------|
D|-------------------------------------------------------------------------------|
A|--5----------------------------------------------------------------------------|
E|-----6--5----------------------------------------------------------------------|

Just improvise on the chords in the break and chorus etc...


| /  slide up
| \  slide down
| h  hammer-on
| p  pull-off
| ~  vibrato
| +  harmonic
| x  Mute note
===============================================================================
Добавлено: 31.05.2016
Другие материалы по этой песне:
  • Аккорды и текст

Страница создана 31.05.2016
http://primanota.ru/spooky-tooth/better-by-you-better-then-me-chords.htm
Привет, Гость.
Предлагаем пройти революционный курс по гитаре.
Подарок от PrimaNota.Ru, забирай!