PrimaNota.ru - самый крупный в мире бесплатный архив песенных текстов, аккордов, табулатур и нот


The Spook School - The Cameraman - таба, видео

Регистрация Запомнить меня
Войти через:  Facebook Google Twitter Vk Yandex Mail.ru

The Spook School - The Cameraman - таба, видео

Печатать
Просмотров: 60
-------------------------------------------------------------------------------
                             THE CAMERAMAN - The Spook School
-------------------------------------------------------------------------------
Tuning: EADG

Main Riff:
e|-------------------7-----|
B|9-7-9-7---9-7--------9---|
G|--------------9--9-------|
D|-------------------------|
A|-------------------------|
E|-------------------------|
Riff ending:
e|-------------------------|
B|9-7-9-7---9-7------7-----|
G|--------------9--9---9---|
D|-------------------------|
A|-------------------------|
E|-------------------------|

Verse chords: E B Dbmin B

Chorus:
  D               A         
e|--------------------------------|
B|--------------------------------|
G|------------------------7-7-9-9-|
D|--------5-5-7-7-7-7-9-9---------|
A|5-5-7-7-------------------------|
E|--------------------------------|
  B
e|--------------------------|
B|--------------------12-12-|
G|----------9-9-11-11-------|
D|9-9-11-11-----------------|
A|--------------------------|
E|--------------------------|

e|---------------------------------------------------|
B|12-12-12---11---10-10-10-10-10-10-10-10-7(1/4 bend)|
G|---------------------------------------------------|
D|---------------------------------------------------|
A|---------------------------------------------------|
E|---------------------------------------------------|

Bridge:
Chords: E B
Melody:
e|------------------------|
B|9---7---9---7--7--------|
G|-----------------9------|
D|--------------------9---|
A|------------------------|
E|------------------------|


************************************

| /   slide up
| \   slide down
| h   hammer-on
| p   pull-off
| ~   vibrato
| +   harmonic
| x   Mute note
| b   Bend
| pb  Pre-bend
| br  Bend release
| pbr Pre-bend release
| brb Bend release bend
************************************
Добавлено: 22.05.2016
Вам также может быть интересно:
Другие материалы по этой песне:
  • Аккорды и текст

Страница создана 22.05.2016
http://primanota.ru/spook-school/cameraman-chords.htm
Привет, Гость.
Предлагаем пройти революционный курс по гитаре.
Подарок от PrimaNota.Ru, забирай!