PrimaNota.ru - самый крупный в мире бесплатный архив песенных текстов, аккордов, табулатур и нот


Sponge - Miles - текст песни, таба, видео

Регистрация Запомнить меня
Войти через:  Facebook Google Twitter Vk Yandex Mail.ru

Sponge - Miles - текст песни, таба, видео

Печатать
Просмотров: 85
Авторы музыки: Jimmy Paluzzi, Vinnie Dombroski, Mike Cross, Joey Mazzola, Tim Cross

I don't write tabs much these days but I guess I was in a masochistic mood because I wrote this
to share online. It also seemed a shame that there was no Miles tab on the internet, and most of the other 
Sponge tabs are wrong. The songs from Rotting Pinata deserve to be learned!

The tuning is Drop Db. That's half a step down from standard, and drop the sixth string down to Db.

The exact timings are not shown, because it takes ages to add them. The rhythms for the repeating octave parts
are also not shown. If you want the timings and rhythm then listen to the song. There are a few harmonies
missing in the chorus, but if you really need those then I'm sure you could figure them out yourself.


Intro
Eb|--------3-------3----------------------------|
Bb|-----3-------3--------3--------4--6---4------|
Gb|--4-------4--------4--------5-------------5--| 
Db|--5-------5--------5-----5-------------------|  x3
Ab|---------------------------------------------| 
Db|---------------------------------------------|

Eb|-----------------------------------3--------------|
Bb|--------1--------3--------4-----------------4-----|
Gb|-----1--------1--------1--------1--------1--------| 
Db|--1--------1--------1--------1--------1--------1--| 
Ab|--------------------------------------------------| 
Db|--------------------------------------------------|


Main riff (layered on top of intro)
Eb|-------------------------------------------|
Bb|-------------------------------------------|
Gb|-------------------------------------------| 
Db|--------5--------5-------------3-----1--0--| 
Ab|-----6--------6-------------6--------------|  x3
Db|--5--------5----------0--3--------0--------|

Eb|-----------------------------------------------|
Bb|-----------------------------------------------|
Gb|-----------------------------4--4--4--5--4-----| 
Db|--------6--------6--------6-----------------5--| 
Ab|-----5--------5--------5-----------------------| 
Db|--6--------6--------6--------------------------|

Pre-chorus
Eb|--------------------------------------------------|
Bb|--------------------------------------------------|
Gb|--------0--------0--------------0--------0--------| 
Db|-----3--------3--------------3--------3-----------| 
Ab|--------------------------------------------------|  x3
Db|--1--------1-----------1--3--------3-----------0--|

       guitar 1                                     guitar 2
Eb|-----------------------------------|   Eb|-----------------------------------|
Bb|-----------------------------------|   Bb|-----------------------------------|
Gb|-----------------------------------|   Gb|--3-3-3-3-3-3-3-3-2-2-2-2-2-2-2-2--| 
Db|--1-1-1-1-1-1-1-1-1-1-1-1-1-1-1-1--|   Db|--x-x-x-x-x-x-x-x-x-x-x-x-x-x-x-x--| 
Ab|--1-1-1-1-1-1-1-1-1-1-1-1-1-1-1-1--|   Ab|--1-1-1-1-1-1-1-1-1-1-1-1-1-1-1-1--| 
Db|--1-1-1-1-1-1-1-1-1-1-1-1-1-1-1-1--|   Db|-----------------------------------|
     . . . . . . . . . . . . . . . .                             


Chorus (rhythm not shown)
Eb|------------------------------|
Bb|------------------------------|
Gb|------------------------------| 
Db|--5---------3------1--------3-| 
Ab|--5---------3------1--------3-|  x3
Db|--5---------3------1--------3-|

Eb|------------------------------|
Bb|------------------------------|
Gb|------------------------------| 
Db|--6---------------------------| 
Ab|--6---------------------------| 
Db|--6---------------------------|

Chorus lead (rhythm not shown) starts at 1:41 and 3:38 in the song
Eb|---------------------|
Bb|---------------------|
Gb|--4-----5---7-----5--| 
Db|--x-----x---x-----x--| 
Ab|--2-----3---5-----3--|  x2
Db|---------------------|

Eb|-----------------------------------------------------|
Bb|-----------------------------------------------------|
Gb|--4-----5---8---------------------11-----------------| 
Db|--x-----x---x---------------------x------------------| 
Ab|--2-----3---6---------------------9------------------| 
Db|-----------------------------------------------------|
                       
Eb|----------------------|      Eb|----------------------|    
Bb|----------------------|      Bb|----------------------|   
Gb|--12----14--15----14--|      Gb|--13------------------|    
Db|--x-----x---x-----x---|      Db|--x-------------------|    
Ab|--10----12--13----12--| x3   Ab|--11------------------| 
Db|----------------------|      Db|----------------------|   

Eb|----------------------|      Eb|----------------------|
Bb|----------------------|      Bb|----------------------|
Gb|--16----17--19----17--|      Gb|--20------------------| 
Db|--x-----x---x-----x---|      Db|--x-------------------| 
Ab|--14----15--17----15--| x3   Ab|--18------------------| 
Db|----------------------|      Db|----------------------|

Post chorus
Eb|--------------------------|
Bb|--------------------------|
Gb|--------------------------| 
Db|--5-----5-----5-----6-----| 
Ab|--5-----5-----5-----6-----| 
Db|--5-----5-----5-----6-----|

 
repeat verse, 

repeat prechorus, 

repeat chorus,


End (repeat until fade out)
   guitar 1                  guitar 2
Eb|------|                Eb|--------------|                       
Bb|------|                Bb|--------------|                       
Gb|------|                Gb|--8--8--7--7--|            
Db|--6---|                Db|--x--x--x--x--|
Ab|--6---|        or      Ab|--6--6--5--5--|  
Db|--6---|                Db|--------------|  


And then you're done! If you used my tab, make sure to rate it. Thanks.

Enjoy playing Miles! And while you're at it, learn some more songs from Rotting Pinata. :)
Добавлено: 26.05.2016
Другие материалы по этой песне:
  • Аккорды и текст

Страница создана 09.05.2012
http://primanota.ru/sponge/miles-chords.htm
Привет, Гость.
Предлагаем пройти революционный курс по гитаре.
Подарок от PrimaNota.Ru, забирай!