PrimaNota.ru - самый крупный в мире бесплатный архив песенных текстов, аккордов, табулатур и нот


Sponge - Araw Oras Tagpuan - аккорды и текст, видео

Регистрация Запомнить меня
Войти через:  Facebook Google Twitter Vk Yandex Mail.ru

Sponge - Araw Oras Tagpuan - аккорды и текст, видео

Печатать
Просмотров: 123
Araw Oras Tagpuan
Sponge
Araw,oras,tagpuan
by Sponge Cola
Tabbed by FeRdZtObAts
contact no: 09078968043
email (fb) tobatsdrive@yahoo.com
tuning: standard
 
watch my cover:
http://www.youtube.com/watch?v=WjqDEw738lk
    

intro: D D/# G 4x

e|-------------5----------|-------------5--2--0----|
B|----3-2-3-2-----2--0----|----3-2-3-2--------3----|
G|--2-2-----2--------0----|--2-2-----2--------0----|
D|------------------------|------------------------|
A|------------------------|------------------------|
E|------------------------|------------------------|


verse 1
 D         D/C#
oras na lumipas
    G
hindi namalayan
 D            D/C#
ang layo na ng kahapon
    G
taon na nga ba o buwan
   D         D/C#
bigat ng bawat araw
    G
dahan-dahan nawala
 D         D/C#
gaan ng bawat bukas
   G
kinasasabikan

chorus:
 G
mahirap magtiwala 
 D       A
tapos ng lahat
       G
ng pinagdaanan natin
   D          A
sa piling ng iba
       G
hindi makapaniwala
 D         A
na pwede pa pala
   G
magkahanapan
    C
mga pusong sugatan

verse 2

imposible nga raw
minsan lang magtugma
buwan, bituin at araw
tila ipininta

ang ating tadhana
para bang tinakda
araw oras tagpuan
alam na natin dalawa


chorus:
 G
mahirap magtiwala 
 D       A
tapos ng lahat
       G
ng pinagdaanan natin
   D          A
sa piling ng iba
       G
hindi makapaniwala
 D         A
na pwede pa pala
   G
magkahanapan
    C
mga pusong sugatan

INSTUMENTAL: D D/# G 2X

chorus:
 G
mahirap magtiwala 
 D       A
tapos ng lahat
       G
ng pinagdaanan natin
   D          A
sa piling ng iba
       G
hindi makapaniwala
 D             A
ang swerte ko pa pala
   G
ng magkahanapan
    C
mga pusong sugatan

outro: mga pusong sugatan 3x 

e|-------------5----------|-------------5--2--0----|
B|----3-2-3-2-----2--0----|----3-2-3-2--------3----|
G|--2-2-----2--------0----|--2-2-----2--------0----|
D|------------------------|------------------------|
A|------------------------|------------------------|
E|------------------------|------------------------|

Добавлено: 17.06.2012
Другие материалы по этой песне:
  • Аккорды и текст

Страница создана 17.06.2012
http://primanota.ru/sponge/araw-oras-tagpuan-chords.htm
Привет, Гость.
Предлагаем пройти революционный курс по гитаре.
Подарок от PrimaNota.Ru, забирай!