PrimaNota.ru - самый крупный в мире бесплатный архив песенных текстов, аккордов, табулатур и нот


Sponge - All This And Nothing - текст песни, таба, видео

Регистрация Запомнить меня
Войти через:  Facebook Google Twitter Vk Yandex Mail.ru

Sponge - All This And Nothing - текст песни, таба, видео

Печатать
Просмотров: 173
SPONGE- “All This and Nothing”

Tab by Dr. David Schaeffer

This is a great song from “The Craft” soundtrack.  It is difficult to figure out at
first due to the unique tuning.  First, the guitar is tuned one-half step down (D#
G# C# F# A# D#) Then, it is Drop-C# tuned (Low D# is dropped one full step to C#)
so that the final tuning from low to high is C# G# C# F# A# D#
The rest is cake…

(Drop-C# tuning)

D#-----------------------------1--1--------------------------------1--1--1-|
A#-------3--------0-----0------1--0--1-------3--------0-----0------1--0--1-|
F#-------2--------0-----0------0--0--0-------2--------0-----0------0--0--0-|
C#-------4--------0-----0--------------------4--------0-----0--------------|
G#----0-----0-----------------------------0-----0--------------------------|
C#--0----------5-----4-----3~~----------0----------5-----4-----3~~---------|

D#-----------------------------1--1----------------------------------------|
A#-------3--------0-----0------1--0--1-------3--------0-----0--------------|
F#-------2--------0-----0------0--0--0-------2--------0-----0--------------|
C#-------4--------0-----0--------------------4--------0-----0—--3~~~~------|
G#----0-----0-----------------------------0-----0---------------3~~~~------|
C#--0----------5-----4-----3~~----------0-----------5-----4-----3~~~~------|

Bridge/Chorus:

D#--x-x-x-x-x-x—-x-x-x—x-x-x--x-x-x-x-x-x—-x-x-x—x-x-x--|
A#--3-3-3-3-3-3—-x-x-x-x-x-x--3-3-3-3-3-3—-x-x-x-x-x-x--|
F#--2-2-2-2-2-2—-0-0-0-0-0-0--2-2-2-2-2-2—-0-0-0-0-0-0--|
C#--0-0-0-0-0-0-—5-5-5-5-5-5--0-0-0-0-0-0-—5-5-5-5-5-5--|
G#--0-0-0-0-0-0-—3-3-3-3-3-3--0-0-0-0-0-0-—3-3-3-3-3-3--|
C#--0-0-0-0-0-0—-5-5-5-5-5-5--0-0-0-0-0-0—-5-5-5-5-5-5--|

But I'll give a mind any reason   To fall and take the easy way out


D#--x-x-x-x-x-x—-x-x-x—x-x-x--x-x-x-x-x-x—-x-x-x—x-x-x--|
A#--3-3-3-3-3-3—-x-x-x-x-x-x--0-0-0-0-0-0—-x-x-x-x-x-x--|
F#--2-2-2-2-2-2—-0-0-0-0-0-0--0-0-0-0-0-0—-0-0-0-0-0-0--|
C#--0-0-0-0-0-0-—5-5-5-5-5-5--4-4-4-4-4-4-—5-5-5-5-5-5--|
G#--0-0-0-0-0-0-—3-3-3-3-3-3--2-2-2-2-2-2-—3-3-3-3-3-3--|
C#--0-0-0-0-0-0—-5-5-5-5-5-5--4-4-4-4-4-4—-5-5-5-5-5-5--|

I'll never give under pressure   Give my permission   I bet you say that you will
Добавлено: 31.07.2012
Другие материалы по этой песне:
  • Аккорды и текст

Страница создана 28.06.2012
http://primanota.ru/sponge/all-this-and-nothing-chords.htm
Привет, Гость.
Предлагаем пройти революционный курс по гитаре.
Подарок от PrimaNota.Ru, забирай!